» » »

Electric Wizard - Legalize Drugs And Murder Tabs

Artists:  A B C D E F G H I J K L M N O P Q R S T U V W X Y Z # 

Legalize Drugs And Murder Tabs

(ver. 1) Click to play this song!
Electric Wizard
 Rating:
4.3/5 (22 votes)

 Legalize Drugs And Murder  lessons Tabs too difficult? Try these video lessons and learn fast
 
                Riff 1
e|---------------------------------------------------------------------------|
B|---------------------------------------------------------------------------|
G|---------------------------------------------------------------------------|
D|---------------------------------------------------------------------------|
A|--7-7-7/10-10-10-10/14-14-14-14\10-10-10-10\7------------------------------|
E|--5-5-5/8--8--8---8/12-12-12-14\8--8--8---8\5------------------------------|

Riff 2
e|---------------------------------------------------------------------------|
B|---------------------------------------------------------------------------|
G|---------------------------------------------------------------------------|
D|---------------------------------------------------------------------------|
A|--7-7-7\3-3-3/10-8h10p8h10p8h10--------------------------------------------|
E|--5-5-5\5-5-5/8------------------------------------------------------------|

            
Submit corrections


        Legalize Drugs And Murder  lessons Hard to play? Try these video lessons and learn fast Legalize Drugs And Murder  lessons
        
↑ Back to top | Tablatures and chords for acoustic guitar and electric guitar, ukulele, drums are parodies/interpretations of the original songs. You may use it for private study, scholarship, research or language learning purposes only