» » »

Electric Light Orchestra - Xanadu Bass

Artists:  A B C D E F G H I J K L M N O P Q R S T U V W X Y Z # 

Xanadu Bass

(ver. 1) Click to play this song!
Electric Light Orchestra
 Rating:
4.3/5 (21 vote)

 Xanadu lessons Tabs too difficult? Try these video lessons and learn fast
 
                [Intro] (Repeat 4x)

G|-----------------|
D|-----------------|
A|-0-0-0-0-0-0-0-0-|
E|-----------------|

[Verse 1] (Repeat 2x)

G|-----------------|-----------------|-----------------|-----------------|
D|-----------------|-----------------|-----------------|-6-6-6-6-6-6-6-6-|
A|-0-0-0-0-0-0-0-0-|-0-0-0-0-0-0-0-0-|-0-0-0-0-0-0-0-0-|-----------------|
E|-----------------|-----------------|-----------------|-----------------|

G|-----------------|-----------------|-----------------|-----------------|
D|-4-4-4-4---------|-----------------|-----------------|-----------------|
A|---------7-7-7-7-|-6-6-6-6---------|-----------------|-7-7-7-7-7-7-7-7-|
E|-----------------|---------8-8-8-8-|-7-7-7-7-7-7-7-7-|-----------------|

[Chorus 1]

G|-----------------|-----------------|-----------------|-----------------|
D|-----------------|-----------------|-----------------|-----------------|
A|-0-0-0-0-0-0-0-0-|-4-4-4-4-4-4-4-4-|-5-5-5-5-5-5-5-5-|-5-5-5-5-5-5-5-5-|
E|-----------------|-----------------|-----------------|-----------------|

G|-----------------|-----------------|-----------------|-----------------|----------------|
D|-----------------|-----------------|-----------------|-----------------|----------------|
A|-0-0-0-0-0-0-0-0-|-4-4-4-4-4-4-4-4-|-5-5-5-5-5-5-5-5-|-5-5-5-5-5-5-5-5-|-8-------7--5---|
E|-----------------|-----------------|-----------------|-----------------|----------------|

G|-----------------|-----------------|-----------------|-----------------|
D|-----------------|-----------------|-----------------|-----------------|
A|-0-0-0-0-0-0-0-0-|-0-0-0-0-0-0-0-0-|-2-2-2-2-2-2-2-2-|-2-2-2-2-2-2-2-2-|
E|-----------------|-----------------|-----------------|-----------------|

G|-----------------|-----------------|-----------------|-----------------|
D|-0-0-0-0-0-0-0-0-|-2-2-2-2-2-2-2-2-|--0--------------|-----------------|
A|-----------------|-----------------|---------0-0-----|-----------------|
E|-----------------|-----------------|-----------------|-1-1-1-1-3-3-3-3-|

G|-----------------|-----------------|-----------------|-----------------|
D|-----------------|-----------------|-----------------|-----------------|
A|-0-0-0-0-0-0-0-0-|-0-0-0-0-0-0-0-0-|-2-2-2-2-2-2-2-2-|-2-2-2-2-2-2-2-2-|
E|-----------------|-----------------|-----------------|-----------------|

G|-----------------|-----------------|-----------------|-----------------|
D|-0-0-0-0-0-0-0-0-|-2-2-2-2-2-2-2-2-|-0---------------|-----------------|
A|-----------------|-----------------|----------4------|-2---------------|
E|-----------------|-----------------|-----------------|-----------------|

G|-----------------|-----------------|
D|-----------------|-----------------|
A|-----------------|-----------------|
E|-4-4-4-4-4-4-4-4-|-0-0-0-0-0-0-0-0-|

[Interlude]

G|-----------------|-----------------|
D|-----------------|-----------------|
A|-0-0-0-0-0-0-0-0-|-0-0-0-0-0-0-0-0-|
E|-----------------|-----------------|

[Verse 2] (Repeat 2x)

G|-----------------|-----------------|-----------------|-----------------|
D|-----------------|-----------------|-----------------|-6-6-6-6-6-6-6-6-|
A|-0-0-0-0-0-0-0-0-|-0-0-0-0-0-0-0-0-|-0-0-0-0-0-0-0-0-|-----------------|
E|-----------------|-----------------|-----------------|-----------------|

G|-----------------|-----------------|-----------------|-----------------|
D|-4-4-4-4---------|-----------------|-----------------|-----------------|
A|---------7-7-7-7-|-6-6-6-6---------|-----------------|-7-7-7-7-7-7-7-7-|
E|-----------------|---------8-8-8-8-|-7-7-7-7-7-7-7-7-|-----------------|

[Chorus 2 + Outro]

G|-----------------|-----------------|-----------------|-----------------|
D|-----------------|-----------------|-----------------|-----------------|
A|-0-0-0-0-0-0-0-0-|-4-4-4-4-4-4-4-4-|-5-5-5-5-5-5-5-5-|-5-5-5-5-5-5-5-5-|
E|-----------------|-----------------|-----------------|-----------------|

G|-----------------|-----------------|-----------------|-----------------|-----------------|
D|-----------------|-----------------|-----------------|-----------------|-----------------|
A|-0-0-0-0-0-0-0-0-|-4-4-4-4-4-4-4-4-|-5-5-5-5-5-5-5-5-|-----------------|-----------------|
E|-----------------|-----------------|-----------------|-3-3-3-3-3-3-3-3-|-3-3-3-3-3-3-3-3-|

G|-----------------|-----------------|-----------------|-----------------|
D|-----------------|-----------------|-----------------|-----------------|
A|-0-0-0-0-0-0-0-0-|-0-0-0-0-0-0-0-0-|-2-2-2-2-2-2-2-2-|-2-2-2-2-2-2-2-2-|
E|-----------------|-----------------|-----------------|-----------------|

G|-----------------|-----------------|-----------------|-----------------|
D|-0-0-0-0-0-0-0-0-|-2-2-2-2-2-2-2-2-|--0--------------|-----------------|
A|-----------------|-----------------|---------0-0-----|-----------------|
E|-----------------|-----------------|-----------------|-1-1-1-1-3-3-3-3-|

G|-----------------|-----------------|-----------------|-----------------|
D|-----------------|-----------------|-----------------|-----------------|
A|-0-0-0-0-0-0-0-0-|-0-0-0-0-0-0-0-0-|-2-2-2-2-2-2-2-2-|-2-2-2-2-2-2-2-2-|
E|-----------------|-----------------|-----------------|-----------------|

G|-----------------|-----------------|-----------------|-----------------|
D|-0-0-0-0-0-0-0-0-|-2-2-2-2-2-2-2-2-|-----------------|-----------------|
A|-----------------|-----------------|-0-0-0-0-0-0-0-0-|-2-2-2-2-2-2-2-2-|
E|-----------------|-----------------|-----------------|-----------------|

G|-----------------|-----------------|-----------------|-----------------|
D|-0-0-0-0-0-0-0-0-|-2-2-2-2-2-2-2-2-|-----------------|-----------------|
A|-----------------|-----------------|-0-0-0-0-0-0-0-0-|-2-2-2-2-2-2-2-2-|
E|-----------------|-----------------|-----------------|-----------------|

G|-----------------|-----------------|-----------------|-----------------|
D|-0-0-0-0-0-0-0-0-|-2-2-2-2-2-2-2-2-|-----------------|-----------------|
A|-----------------|-----------------|-4-4-4-4-4-4-4-4-|-----------------|
E|-----------------|-----------------|-----------------|-0-0-0-0-0-0-0-0-|

G|-----------------|-----------------|-----------------|-----------------|-----------------|
D|-----------------|-----------------|-----------------|-----------------|-----------------|
A|-----------------|-8-8-8-8-8-8-8-8-|-5-5-5-5-5-5-5-5-|-0-0-0-0-0-0-0-0-|-0---------------|
E|-0-0-0-0-0-0-0-0-|-----------------|-----------------|-----------------|-----------------|            
Submit corrections


        Xanadu lessons Hard to play? Try these video lessons and learn fast Xanadu lessons
        
↑ Back to top | Tablatures and chords for acoustic guitar and electric guitar, ukulele, drums are parodies/interpretations of the original songs. You may use it for private study, scholarship, research or language learning purposes only