» » »

Electric Light Orchestra - I'm Alive Bass

Artists:  A B C D E F G H I J K L M N O P Q R S T U V W X Y Z # 

I'm Alive Bass

(ver. 1) Click to play this song!
Electric Light Orchestra
 Rating:
4/5 (4 votes)
                ++++++++++++++++++++++++++++++++++++++
| Electric Light Orchestra- Im Alive |
++++++++++++++++++++++++++++++++++++++


"Suddenly came the dawn..."

Tuning: EADG


Intro
1.
G|----5~------------------5~------------------5~-|
D|-3~----55555555-5555-3~----55555555-5555-3~----|
A|-----------------------------------------------|
E|-----------------------------------------------|

"Im alive and the world shines for me today..."
2.
G|--------------------------------------5~---------------------------------------|
D|-5555555-4-222-------------2100000-3~----5555555-4-222-------------21000000000-|
A|---------------444-1-00000-----------------------------444-1-00000-------------|
E|-------------------------------------------------------------------------------|

Pre-Chorus
"Seems like forever..."
3.
G|------------------------------------------------|
D|-------21000000002-------210000111122222222-4-4-|
A|-00000-------------00000------------------------|
E|------------------------------------------------|

Chorus
"Im alive..."
4.
G|---------------2--------------------5~-|
D|-55555555-00000-00-55555555-0000-3~----|
A|---------------------------------------|
E|---------------------------------------|

Verse
"Im alive and the dawn breaks across the sky..."
5.
G|--------------------------------------5~---------------------------------------|
D|-5555555-4-222-------------2100000-3~----5555555-4-222-------------21000000000-|
A|---------------444-1-00000-----------------------------444-1-00000-------------|
E|-------------------------------------------------------------------------------|

Pre-Chorus
"Lost in another world..."
6.
G|------------------------------------------------|
D|-------21000000002-------210000111122222222-4-4-|
A|-00000-------------00000------------------------|
E|------------------------------------------------|

Chorus
"Im alive..."
7.
G|---------------2----------------------------------------------------------5~-|
D|-55555555-00000-00-55555555-00000000-5555-4444-2222-0000---------------3~----|
A|---------------------------------------------------------3~------------------|
E|-----------------------------------------------------------------------------|

Outro
8.
G|--------------------------------------5~---------------------------------------|
D|-5555555-4-222-------------2100000-3~----5555555-4-222-------------21000000000-|
A|---------------444-1-00000-----------------------------444-1-00000-------------|
E|-------------------------------------------------------------------------------|

Pre-Chorus
"Suddenly came the dawn..."
9.
G|----------------------------------------------------|
D|-------21000000002-------21000011112222444455556666-|
A|-00000-------------00000----------------------------|
E|----------------------------------------------------|

Chorus
"Im alive..."
10.
G|---------------------------------------|
D|-77777777----------77777777------5~----|
A|----------77777777----------7777----5~-|
E|---------------------------------------|

Verse
"Im alive and the world shines for me today..."
11.
G|-------------------------------------------------------------------------------|
D|-7777777-6-444-------------4322222-5~----7777777-6-444-------------43222222222-|
A|---------------666-3-22222------------5~---------------666-3-22222-------------|
E|-------------------------------------------------------------------------------|

Pre-Chorus
"Seems like forever..."
12.
G|------------------------------------------------|
D|-------43222222224-------432222333344444444-6-6-|
A|-22222-------------22222------------------------|
E|------------------------------------------------|

Chorus
"Im alive..."
13.
G|-------------------------------------------------------------|
D|-7777-6666-4444-2222-7777-6666-4444-2222-7777-6666-4444-2222-|
A|-------------------------------------------------------------|
E|-------------------------------------------------------------|

Outro
14.
G|-----------------------------------------------------|
D|-000~-------000~---00-0-0-0-0~-------000~---00-0-0-0-|
A|-----------------------------------------------------|
E|-----------------------------------------------------|

15.
G|---------------------------------------|
D|-00000000-00000000-00000000-0000-6-6-6-|
A|---------------------------------------|
E|---------------------------------------|

16.
G|--------------------------------0-4-2--22--2-2-22-2-2--------------0-4-|
D|-------------------2--22--2-2-2-----------------------2--22--2-2-2-----|
A|-00000000-00000000-----------------------------------------------------|
E|-----------------------------------------------------------------------|

17.
G|--------------------------------------|
D|----------------------------2~--2-2-2-|
A|-00000000-00000000-11111111-----------|
E|--------------------------------------|

Chorus
"Im alive..."
18.
G|-----------------------------------------------------------------------|
D|----------2~---2-2-2----------2~---2-2-2----------2~---2-2-2-3~--------|
A|-00000000------------00000000------------00000000----------------------|
E|-----------------------------------------------------------------------|


Please rate thanks!


Lyrics:

I'm alive and the world shines for me today
I'm alive suddenly I am here today
Seems like forever (and a day), thought I could never (feel this way)
Is this really me? I'm alive

I'm alive and the dawn breaks across the sky
I'm alive and the sun rises up so high
Lost in another world (far away), never another word (till today)
But what can I say? I'm alive, I'm alive

Suddenly came the dawn (from the night), suddenly I was born (into light)
How can it be real? I'm alive



+++++++++++
| Raileff |
+++++++++++
            
Submit corrections

↑ Back to top | Tablatures and chords for acoustic guitar and electric guitar, ukulele, drums are parodies/interpretations of the original songs. You may use it for private study, scholarship, research or language learning purposes only