Home » E » Elbow »

Elbow - One Day Like This Bass

Artists:  A B C D E F G H I J K L M N O P Q R S T U V W X Y Z # 

One Day Like This Bass

(ver. 1) Click to play this song!
Elbow
[Intro]

G|---------------------------------------------------------------------------|
D|---10-9----8---------------10-9----8----------------3-3-----3-----3-3-----3|
A|-8------10---8-10--------8------10---8-8-----------------------------------|
E|------------------------------------------------1-1-----1-1---1-1-----1-1--|

G|-----------------------------|
D|-----3-3-----3-----3-3-----3-|
A|-----------------------------|
E|-1-1-----1-1---1-1-----1-1---|

[Verse 1]

G|---------------|
D|-----3-3-----3-| X16
A|---------------|
E|-1-1-----1-1---|
 
Instrumental Break
G|-----10-10-----10---------------|
D|----------------------3-3-----3-|
A|-8-8-------8-8------------------|
E|------------------1-1-----1-1---|

[Verse 1]
G|---------------|
D|-----3-3-----3-| X8
A|---------------|
E|-1-1-----1-1---|

[Chorus]
G|---------------|
D|-----3-3-----3-| X8
A|---------------|
E|-1-1-----1-1---|

G|-----10-10-----10------------------------------------------------|
D|----------------------3-3-----3-----3-3-----3-----3-3-----3------|
A|-8-8-------8-8---------------------------------------------------|
E|------------------1-1-----1-1---1-1-----1-1---1-1-----1-1----1---|

[Verse 2]
 when my face is chamois-creased
G|---------------------------------------------------------------------------|
D|---------------------------------------------------------------------------|
A|---------------------------------------------------------------------------|
E|---------------------------------------------------------------------------|
 If you think i wink, I did
G|---------------------------------------------------------------------------|
D|-----------------------------10-9----8-------------------------------------|
A|---------------------------8------10---8-8---------------------------------|
E|---------------------------------------------------------------------------|
 Laugh politely at repeats
G|---------------------------------------------------------------------------|
D|-----------------------------10-9----8-------------------------------------|
A|---------------------------8------10---8-8---------------------------------|
E|---------------------------------------------------------------------------|
 Yeah, kiss me when my lips are thin
G|---------------------------------------------------------------------------|
D|---------------------------------------------------------------------------|
A|---------------------------------------------------------------------------|
E|---------------------------------------------------------------------------|

[Chorus]
G|---------------|
D|-----3-3-----3-| X8
A|---------------|
E|-1-1-----1-1---|

G|-----10-10-----10------------------------------------------------|
D|----------------------3-3-----3-----3-3-----3-----3-3-----3------|
A|-8-8-------8-8---------------------------------------------------|
E|------------------1-1-----1-1---1-1-----1-1---1-1-----1-1----1---|


[Outro]
G|---------------|
D|-----3-3-----3-| X9
A|---------------|
E|-1-1-----1-1---|
                                     
G|-----10-10-----10------------------|
D|----------------------10-10-----10-|
A|-8-8-------8-8---------------------|
E|------------------8-8-------8-8----|
                                       [Repeat together 8 times]                                  
G|-----------------------------------|
D|-----3-3-----3-----3-3-----3-------|
A|-----------------------------------|
E|-1-1-----1-1---1-1-----1-1---------|

G|------------------------------------------------10--------8---------------------------------------------|
D|-----3-3-----3-----3-------------------------10---------8------------------10-9----7--------------------|
A|------------------------6----8h8------8----8----------6-------------8----8------10------6----8------8---|
E|-1-1-----1-1---1-1---------------6-----------------------------6-------------------------------6--------|

G|------------------|
D|------------------|
A|------6---------8-|
E|-1---------6------|

            
Submit corrections

↑ Back to top | Tablatures and chords for acoustic guitar and electric guitar, ukulele, drums are parodies/interpretations of the original songs. You may use it for private study, scholarship, research or language learning purposes only