Home » E » Elastica »

Elastica - Indian Song Tabs

Artists:  A B C D E F G H I J K L M N O P Q R S T U V W X Y Z # 

Indian Song Tabs

(ver. 1) Click to play this song!
Elastica
**Guitar 1**
    *p.m.-------------------------*
e|---------------------------------------|
B|---------------------------------------|
G|---------------------------------------|
D|--2-2-2-2-2-2-2-2-2-2-2-2-2-2-2-2------|
A|--2-2-2-2-2-2-2-2-2-2-2-2-2-2-2-2------|
E|--0-0-0-0-0-0-0-0-0-0-0-0-0-0-0-0------|
 
**Guitar 2**
   *p.m.-------------------------*
e|---------------------------------------|
B|---------------------------------------|
G|--9-9-9-9-9-9-9-9-9-9-9-9-9-9-9-9------|
D|--9-9-9-9-9-9-9-9-9-9-9-9-9-9-9-9------|
A|--7-7-7-7-7-7-7-7-7-7-7-7-7-7-7-7------|
E|---------------------------------------|
 
[Verse]
 
   *p.m.-------------------------*
e|---------------------------------------|
B|---------------------------------------|
G|--9-9-9-9-9-9-9-9-9-9-9-9-9-9-9-9------|
D|--9-9-9-9-9-9-9-9-9-9-9-9-9-9-9-9------|
A|--7-7-7-7-7-7-7-7-7-7-7-7-7-7-7-7------|
E|---------------------------------------|
 
If you want to,
Then you've got to
Let it show,
It is waiting,
It is waiting.
If you want to,
Then you've got to
Let it go,
It is waiting,
It is waiting.
If you want to,
Then you've got to
Let it show,
It is waiting
Heaven is waiting.
 
**guitar solo**
 
e|-----------------------------|
B|-----------------------------|
G|---8h9p8----8h9p8------------|
D|---------9--------9--9-9-----| x4
A|-----------------------------|
E|-----------------------------|
 
e|------------------------------------|
B|--14h15p14--------------------------|
G|-----------16--14---13h14p13--------|
D|-----------------------------14-----|
A|------------------------------------|
E|------------------------------------|
 
e|------------------------------------|
B|--14h15p14--------14----------15----|
G|-----------16--14----14p13----------|
D|---------------------------14-------|
A|------------------------------------|
E|------------------------------------|
 
e|--------------------------14--------|
B|-----------------------------15-----|
G|------------------------------------|
D|--12~---12h14--14-14----------------|
A|------------------------------------|
E|------------------------------------|
 
[Outro]
 
   *p.m.-------------------------*
e|---------------------------------------|
B|---------------------------------------|
G|--9-9-9-9-9-9-9-9-9-9-9-9-9-9-9-9------|
D|--9-9-9-9-9-9-9-9-9-9-9-9-9-9-9-9------|
A|--7-7-7-7-7-7-7-7-7-7-7-7-7-7-7-7------|
E|---------------------------------------|
 
If you want to,
Then you've got to
Let it show,
It is waiting
Heaven is waiting.
 
e|-----------------------------|
B|-----------------------------|
G|---8h9p8----8h9p8------------|
D|---------9--------9--9-9-----|
A|-----------------------------|
E|-----------------------------|
 
e|----------------------------------|
B|----------------------------------|
G|---8h9p8----8h9p8-------9-9---9~--|
D|---------9------------------------|
A|----------------------------------|
E|----------------------------------|
            
Submit corrections

↑ Back to top | Tablatures and chords for acoustic guitar and electric guitar, ukulele, drums are parodies/interpretations of the original songs. You may use it for private study, scholarship, research or language learning purposes only