» » »

Eiffel 65 - Silicon World Tabs

Artists:  A B C D E F G H I J K L M N O P Q R S T U V W X Y Z # 

Silicon World Tabs

(ver. 1) Click to play this song!
Eiffel 65
 Rating:
4/5 (6 votes)
                ----------------------------------------------------------------------------
----------------------------------------------------------------------------

Tuning:

e|------------------------------------------------|
B|------------9-(9)-(9)------------12-(12)-(12)---|
G|---8---9-----------------8---9------------------|
D|------------------------------------------------|
A|------------------------------------------------|
E|------------------------------------------------|

e|--------------------------4---------------------------------|
B|--------------4----4--5-6---5-------------------------------|
G|-2-4-6-----6-----4---------------4--6----6--4-----------4---|
D|---------6-----------------------------6-------4---6-4----6-|
A|------------------------------------------------------------|
E|------------------------------------------------------------|

                                          vocal melody\  Musical Melody\ 
e|-------------------------4---------------------|---------|------------|
B|--------------4---4--5-6---5-------------------|---------|------------|
G|-2-4-6-----6----4----------------4--6-6---6-4--|-4-4---2-|--------4---|
D|---------6------------------------------6------|---------|-4--6-4---6-|
A|-----------------------------------------------|---------|------------|
E|-----------------------------------------------|---------|------------|




| /  slide up
| \  slide down
| h  hammer-on
| p  pull-off
| ~  vibrato
| +  harmonic
| x  Mute note
============================================================================
            
Submit corrections

↑ Back to top | Tablatures and chords for acoustic guitar and electric guitar, ukulele, drums are parodies/interpretations of the original songs. You may use it for private study, scholarship, research or language learning purposes only