Home » E » Efek Rumah Kaca »

Efek Rumah Kaca - Lagu Kesepian Tabs

Artists:  A B C D E F G H I J K L M N O P Q R S T U V W X Y Z # 

Lagu Kesepian Tabs

(ver. 1) Click to play this song!
Efek Rumah Kaca
Intro & Verse

e|---------------------------------------------------------------------------|
B|---3-----------0-------------------------0---------------------------------|
G|---------0-----------0-------------2-----------2---------------------------|
D|------2-----2-----2-----2-------2-----2-----2-----2------------------------|
A|---3-------------------------0---------------------------------------------|
E|---------------------------------------------------------------------------|

e|---------------------------------------------------------------------------|
B|---------------0--------------------------3-------0------------------------|
G|---------0-----------0------------0----------------------------------------|
D|------2-----2-----2-----2----4---------4-----------------------------------|
A|---------------------------------------------------------------------------|
E|---0-------------------------3---------------------------------------------|

e|-----------------------------1----0----------------------------------------|
B|------0-----------0----------3---------3----1------------------------------|
G|---2-----2-----2-----2-------2---------------------------------------------|
D|------------2-----------2----0---------------------------------------------|
A|---0-----------0-----------------------------------------------------------|
E|---------------------------------------------------------------------------|

e|---0-----------0-----------0-----------0-----------------------------------|
B|---0--0-----------0-----------0-----------0--------------------------------|
G|---0-----0-----------0-----------0-----------0-----------------------------|
D|---2--------2-----------2-----------2-----------2--------------------------|
A|---------------------------------------------------------------------------|
E|---------------------------------------------------------------------------|
 |
e|---------------------------------------------------------------------------|
B|---------------0-----------------------------------------------------------|
G|--------------------2----0-------------------------------------------------|
D|------------------------------4----5----2----------------------------------|
A|---------------------------------------------------------------------------|
E|---------------------------------------------------------------------------|


Chorus

e|---------------------------------------------------------------------------|
B|---------------5-------------------------5---------------------------------|
G|---------4--------4-----4----------4--------4-----4------------------------|
D|------5-----5--------5----------5-----5--------5---------------------------|
A|---4-------------------------3---------------------------------------------|
E|---------------------------------------------------------------------------|

e|---------------------------------------------------------------------------|
B|---------------7-------------------------9---------------------------------|
G|---------6--------6-----6----------9--------9-----9------------------------|
D|------7-----7--------7----------9-----9--------9---------------------------|
A|---6-------------------------7---------------------------------------------|
E|---------------------------------------------------------------------------|

e|---------------------------------------------------------------------------|
B|---------------2-------------------------7---------------------------------|
G|---------2--------2-----2----------6--------6-----6------------------------|
D|------2-----2--------2----------7-----7--------7---------------------------|
A|---0-------------------------6---------------------------------------------|
E|---------------------------------------------------------------------------|

e|---------------------------------------------------------------------------|
B|---------------5-------------------------5---------------------------------|
G|---------4--------4-----4----------4--------4-----4------------------------|
D|------5-----5--------5----------5-----5--------5---------------------------|
A|---4-------------------------3---------------------------------------------|
E|---------------------------------------------------------------------------|

e|---------------------------------------------------------------------------|
B|---------------7-------------------------9---------------------------------|
G|---------6--------6-----6----------9--------9-----9------------------------|
D|------7-----7--------7----------9-----9--------9---------------------------|
A|---6-------------------------7---------------------------------------------|
E|---------------------------------------------------------------------------|

e|---------------------------------------------------------------------------|
B|---------------2-------------------------7---------------------------------|
G|---------2--------2-----2----------6--------6-----6------------------------|
D|------2-----2--------2----------7-----7--------7---------------------------|
A|---0-------------------------6---------------------------------------------|
E|---------------------------------------------------------------------------|


e|---------------------------------------------------------------------------|
B|---------------5-------------------------5---------------------------------|
G|---------4--------4-----4----------4--------4-----4------------------------|
D|------5-----5--------5----------5-----5--------5---------------------------|
A|---4-------------------------3---------------------------------------------|
E|---------------------------------------------------------------------------|

e|---------------2-----------------------------------------------------------|
B|------------------3----------0---------------------------------------------|
G|---------4-----------4------------2----0-----------------------------------|
D|------4-----4-----------4-------------------4----5----2--------------------|
A|---2-----------------------------------------------------------------------|
E|---------------------------------------------------------------------------|

To Verse

To Chorus

Interlude

Guitar 1

e|---0--0--0--0--0--0--0--0-------0--0--0--0--0--0--0--0---------------------|
B|---0--0--0--0--0--0--0--0-------0--0--0--0--0--0--0--0---------------------|
G|---1--1--1--1--1--1--1--1-------2--2--2--2--2--2--2--2---------------------|
D|---2--2--2--2--2--2--2--2-------2--2--2--2--2--2--2--2---------------------|
A|---2--2--2--2--2--2--2--2-------0--0--0--0--0--0--0--0---------------------|
E|---0--0--0--0--0--0--0--0--------------------------------------------------|

e|---0--0--0--0--0--0--0--0-------0--0--0--0--0--0--0--0---------------------|
B|---0--0--0--0--0--0--0--0-------0--0--0--0--0--0--0--0---------------------|
G|---2--2--2--2--2--2--2--2-------2--2--2--2--2--2--2--2---------------------|
D|---2--2--2--2--2--2--2--2-------2--2--2--2--2--2--2--2---------------------|
A|--------------------------------0--0--0--0--0--0--0--0---------------------|
E|---2--2--2--2--2--2--2--2--------------------------------------------------|

Guitar 2
e|---------------------------------------------------------------------------|
B|---9-------------9------12------9-------------9------12--------------------|
G|---------11---------------------------11-----------------------------------|
D|---------------------------------------------------------------------------|
A|---------------------------------------------------------------------------|
E|---------------------------------------------------------------------------|



Chorus

e|---------------------------------------------------------------------------|
B|---------------5-------------------------5---------------------------------|
G|---------4--------4-----4----------4--------4-----4------------------------|
D|------5-----5--------5----------5-----5--------5---------------------------|
A|---4-------------------------3---------------------------------------------|
E|---------------------------------------------------------------------------|

e|---------------------------------------------------------------------------|
B|---------------7-------------------------9---------------------------------|
G|---------6--------6-----6----------9--------9-----9------------------------|
D|------7-----7--------7----------9-----9--------9---------------------------|
A|---6-------------------------7---------------------------------------------|
E|---------------------------------------------------------------------------|

e|---------------------------------------------------------------------------|
B|---------------2-------------------------7---------------------------------|
G|---------2--------2-----2----------6--------6-----6------------------------|
D|------2-----2--------2----------7-----7--------7---------------------------|
A|---0-------------------------6---------------------------------------------|
E|---------------------------------------------------------------------------|

e|---------------------------------------------------------------------------|
B|---------------5-------------------------5---------------------------------|
G|---------4--------4-----4----------4--------4-----4------------------------|
D|------5-----5--------5----------5-----5--------5---------------------------|
A|---4-------------------------3---------------------------------------------|
E|---------------------------------------------------------------------------|

e|---------------------------------------------------------------------------|
B|---------------7-------------------------9---------------------------------|
G|---------6--------6-----6----------9--------9-----9------------------------|
D|------7-----7--------7----------9-----9--------9---------------------------|
A|---6-------------------------7---------------------------------------------|
E|---------------------------------------------------------------------------|

e|---------------------------------------------------------------------------|
B|---------------2-------------------------7---------------------------------|
G|---------2--------2-----2----------6--------6-----6------------------------|
D|------2-----2--------2----------7-----7--------7---------------------------|
A|---0-------------------------6---------------------------------------------|
E|---------------------------------------------------------------------------|

e|---------------------------------------------------------------------------|
B|---------------5-------------------------5---------------------------------|
G|---------4--------4-----4----------4--------4-----4------------------------|
D|------5-----5--------5----------5-----5--------5---------------------------|
A|---4-------------------------3---------------------------------------------|
E|---------------------------------------------------------------------------|

e|---------------------------------------------------------------------------|
B|---------------7-------------------------9---------------------------------|
G|---------6--------6-----6----------9--------9-----9------------------------|
D|------7-----7--------7----------9-----9--------9---------------------------|
A|---6-------------------------7---------------------------------------------|
E|---------------------------------------------------------------------------|

e|---------------------------------------------------------------------------|
B|---------------2-------------------------7---------------------------------|
G|---------2--------2-----2----------6--------6-----6------------------------|
D|------2-----2--------2----------7-----7--------7---------------------------|
A|---0-------------------------6---------------------------------------------|
E|---------------------------------------------------------------------------|

e|---------------------------------------------------------------------------|
B|---------------5-------------------------5---------------------------------|
G|---------4--------4-----4----------4--------4-----4------------------------|
D|------5-----5--------5----------5-----5--------5---------------------------|
A|---4-------------------------3---------------------------------------------|
E|---------------------------------------------------------------------------|

e|---------------------------------------------------------------------------|
B|---------------5-------------------------5---------------------------------|
G|---------4--------4-----4----------4--------4-----4------------------------|
D|------5-----5--------5----------5-----5--------5---------------------------|
A|---4-------------------------3---------------------------------------------|
E|---------------------------------------------------------------------------|

e|---------------------------------------------------------------------------|
B|---------------5-------------------------5---------------------------------|
G|---------4--------4-----4----------4--------4-----4------------------------|
D|------5-----5--------5----------5-----5--------5---------------------------|
A|---4-------------------------3---------------------------------------------|
E|---------------------------------------------------------------------------|

e|---------------2-----------------------------------------------------------|
B|------------------3----------0---------------------------------------------|
G|---------4-----------4------------2----0-----------------------------------|
D|------4-----4-----------4-------------------4----5----2--------------------|
A|---2-----------------------------------------------------------------------|
E|---------------------------------------------------------------------------|
            
Submit corrections

↑ Back to top | Tablatures and chords for acoustic guitar and electric guitar, ukulele, drums are parodies/interpretations of the original songs. You may use it for private study, scholarship, research or language learning purposes only