Home » E » Edith Piaf »

Edith Piaf - La Vie En Rose Tabs

Artists:  A B C D E F G H I J K L M N O P Q R S T U V W X Y Z # 

La Vie En Rose Tabs

(ver. 1) Click to play this song!
Edith Piaf
 Rating:
4.3/5 (29 votes)
                 NO CAPO, but sounds also good on 3th/5th Fret. 
   
e|-------------------------------------------------------------------------|
B|---3-2-0-----3-2---0-------2--0----------2--0----------------------------|
G|---2-----2-----2-----2--------0--2----------0-------0-4-2----------------|
D|---0-------4-----------4-0---------4-0-4--------2/4-----2----------------|
A|--------------------------------------------------------0----------------|
E|---------------2--------------3-------------0----------------------------|
  
               
e|---0---------------------------------------------------------------------|
B|---0-3-2-0---3-2--2h3p2-----2--0--0h2p0-----2--0--2p1p0------------------|
G|---0-------0---0--------0------0--------0------0--------3--2-------------|
D|---------------2----------2---------------2----------------2-------------|
A|-----------------------------------------------------------0-------------|
E|---0-----------0---------------0---------------3-------------------------|

e|-----------------------------------------------------0-0---0-0-----------|
B|---3-2-0-----3-2---0-------2--0----------3--3--0234--0---3-0-------------|
G|---2-----2-----2-----2--------0--2----------0--------0-----0-------------|
D|---0-------4-----------4-0---------4-0-0---------------------------------|
A|-------------------------------------------------------------------------|
E|---------------2--------------3-------------3--------0-----0-------------|

e|-----0-0---------0--0---0--------2--2-0----------------------------------|
B|--3--2---3--2--3-3----3-3-3-0-3--2---------------------------------------|
G|-----2-----------0------0--------0---------------------------------------|
D|-------------------------------------------------------------------------|
A|---------------------------------0---------------------------------------|
E|-----2------2----3------3------------------------------------------------|
            
Submit corrections

↑ Back to top | Tablatures and chords for acoustic guitar and electric guitar, ukulele, drums are parodies/interpretations of the original songs. You may use it for private study, scholarship, research or language learning purposes only