» » »

Edguy - Superheroes Bass

Artists:  A B C D E F G H I J K L M N O P Q R S T U V W X Y Z # 

Superheroes Bass

(ver. 1) Click to play this song!
Edguy
 Rating:
4/5 (4 votes)


 Superheroes lessons Tabs too difficult? Try these video lessons and learn fast
 
                Band: Edguy

My Gear: Ibanez Bass, Ibanez 10W Amp

Tuning: Standard (EADG)

INTRO:
|---------------------------------------------|
|---------------------------------------------| (1x)
|-5-5-5-5-5-5-5-5-5-5-\----------------/3-3-3-|
|----------------------\-1-1-1-1-1-1-1/-------|

VERSE:
|----------------------------------------------|
|----------------------------------------------|(3x)
|-5-5-5-5-5-5-5-5-5-5-\-----------------/3-3-3-|
|----------------------\1-1-1-1-1-1-1-1/-------|

|---------------------------------------------|
|---------------------------------------------| (1x)
|-5-5-5-5-5-5-5-5-5-5-------------------------|
|-----------------------1-1-1-1-1-1-1-1/------|

CHORUS:
|--------------------------------------------------------------|
|--------------------------------------------------------------| (2x)
|-5-5--5---1-1--1------------3-3--3---5-5--5---1-1--1---3-3--3-|
|-------------------1-1--1-------------------------------------|

VERSE:
|----------------------------------------------|
|----------------------------------------------|(3x)
|-5-5-5-5-5-5-5-5-5-5-\-----------------/3-3-3-|
|----------------------\1-1-1-1-1-1-1-1/-------|

|---------------------------------------------|
|---------------------------------------------| (1x)
|-5-5-5-5-5-5-5-5-5-5-------------------------|
|-----------------------1-1-1-1-1-1-1-1/------|

CHORUS:
|--------------------------------------------------------------|
|--------------------------------------------------------------| (2x)
|-5-5--5---1-1--1------------3-3--3---5-5--5---1-1--1---3-3--3-|
|-------------------1-1--1-------------------------------------|

BRIDGE:
|-------------------------------------------------|
|-------------------------------------------------| (1x)
|-5-5-5-5-5-5-------------3-3-3-3-3-3-------------|
|-------------3-3-3-3-3-3-------------1-1-1-1-1-1-|

CHORUS:
first three lines are violin. Then:
|--------------------------------------------------------------|
|--------------------------------------------------------------| (1x)
|-5-5--5---1-1--1------------3-3--3---5-5--5---1-1--1---3-3--3-|
|-------------------1-1--1-------------------------------------|

|--------------------------------------------------------------|
|--------------------------------------------------------------| (2x)
|-5-5--5---1-1--1------------3-3--3---5-5--5---1-1--1---3-3--3-|
|-------------------1-1--1-------------------------------------|

END:
|----------------------------------------------|
|----------------------------------------------|(1x)
|-5-5-5-5-5-5-5-5-5-5-\-----------------/3-3-3-|
|----------------------\1-1-1-1-1-1-1-1/-------|

|---------------------------------------------|
|---------------------------------------------| (1x)
|-5-5-5-5-5-5-5-5-5-5-------------------------|
|-----------------------1-1-1-1-1-1-1-1/------|
            
Submit corrections



        Superheroes lessons Hard to play? Try these video lessons and learn fast Superheroes lessons
        
↑ Back to top | Tablatures and chords for acoustic guitar and electric guitar, ukulele, drums are parodies/interpretations of the original songs. You may use it for private study, scholarship, research or language learning purposes only