» » »

Eddie Cochran - Somethin Else Tabs

Artists:  A B C D E F G H I J K L M N O P Q R S T U V W X Y Z # 

Somethin Else Tabs

(ver. 1) Click to play this song!
Eddie Cochran
 Rating:
4.4/5 (14 votes)

 Somethin Else lessons Tabs too difficult? Try these video lessons and learn fast
 
                  Q=164
                   D5
 4/4
  Gtr I (Clean El. Gtr.)
  H    E E E E       E E E E   E E E E     E E E E E E E E
|--------------||----------------------|-------------------|
|--------------||o---------------------|-------------------|
|--------------||----------------------|-------------------|
|--------------||----7-7-9-7---7-7-9-7-|---7-7-9-7---------|
|------------4-||o---5-5-5-5---5-5-5-5-|---5-5-5-5-------4-|
|--------5-7---||----------------------|-------------5-7---|
|
| Gtr II (Clean El. Gtr.)
|      PM------------------------------------------------|
| H    E E E E     a E E E E a E E E E   a E E E E E E E E
|--------------||----------------------|-------------------|
|--------------||o---------------------|-------------------|
|--------------||----------------------|-------------------|
|--------------||--6s7-7-7-7-6s7-7-7-7-|-6s7-7-7-7---------|
|------------4-||o-4s5-5-5-5-4s5-5-5-5-|-4s5-5-5-5-------4-|
|--------5-7---||----------------------|-------------5-7---|


                          A7                 D
    E E E E   E E E E   E E E E E E E E   Q  q  q  Q    Q  q  E E E E
|---------------------|---5-5-5-5-5-5-5-|-------------|----------------||
|---------------------|---5-5-5-5-5-5-5-|----7--7-----|----7--7--------||
|---------------------|---6-6-6-6-6-6-6-|----7--7-----|----7--7--------||
|---7-7-9-7---7-7-9-7-|---5-5-5-5-5-5-5-|----7--7-----|----7--7--------||
|---5-5-5-5---5-5-5-5-|---7-7-7-7-7-7-7-|----5--5-----|----5--5-----4--||
|---------------------|---5-5-5-5-5-5-5-|-------------|---------5-7----||
|
| PM----------------|     PM----------|                         PM--|
| a E E E E a E E E E   E E E E E E E E   Q  q  q  Q    Q  q  E E E E
|---------------------|-----------------|-------------|----------------||
|---------------------|-----------------|----7--7-----|----7--7--------||
|---------------------|-----------------|----7--7-----|----7--7--------||
|-6s7-7-7-7-6s7-7-7-7-|-----------------|----7--7-----|----7--7--------||
|-4s5-5-5-5-4s5-5-5-5-|---7-7-7-7-7-7-7-|----5--5-----|----5--5-----4--||
|---------------------|---5-5-5-5-5-5-5-|-------------|---------5-7----||


 1st - 4th Verses
  D5
  Gtrs I, II
  E E E E E E E E   E E E E E E E E   E E E E E E E E   E E E E E E E E
|-----------------|-----------------|-----------------|------------------|
|-----------------|-----------------|-----------------|------------------|
|-----------------|-----------------|-----------------|------------------|
|-7-7-9-7-7-7-9-7-|-7-7-9-7-7-7-9-7-|-7-7-9-7-7-7-9-7-|-7-7-9-7-7-7-9-7--|
|-5-5-5-5-5-5-5-5-|-5-5-5-5-5-5-5-5-|-5-5-5-5-5-5-5-5-|-5-5-5-5-5-5-5-5--|
|-----------------|-----------------|-----------------|------------------|


  A5                                  G5
  E E E E E E E E   E E E E E E E E   E E E E E E E E   E E E E E E E E
|-----------------|-----------------|-----------------|------------------|
|-----------------|-----------------|-----------------|------------------|
|-----------------|-----------------|-----------------|------------------|
|-----------------|-----------------|-----------------|------------------|
|-7-7-9-7-7-7-9-7-|-7-7-9-7-7-7-9-7-|-5-5-7-5-5-5-7-5-|-5-5-7-5-5-5-7-5--|
|-5-5-5-5-5-5-5-5-|-5-5-5-5-5-5-5-5-|-3-3-3-3-3-3-3-3-|-3-3-3-3-3-3-3-3--|


                                                   1.,2.,3.
  A5                G5                D
                                                           PM----|
  E E E E E E E E   E E E E E E E E   E E Q  H      E E Q  E E E E   4x
|-----------------|-----------------|-------------|------------------||
|-----------------|-----------------|-7-----------|-7---------------o||
|-----------------|-----------------|-7-----------|-7----------------||
|-----------------|-----------------|-7-----------|-7----------------||
|-7-7-9-7-7-7-9-7-|-5-5-7-5-5-5-7-5-|-5-----------|-5------------4--o||
|-5-5-5-5-5-5-5-5-|-3-3-3-3-3-3-3-3-|-------------|----------5-7-----||


                    Outro
  4.
  D                  D5
         PM
  E E Q  E E E E       E E E E   E E E E     E E E E E E E E   6x
|----------------||----------------------|---------------------||
|-7--------------||o---------------------|--------------------o||
|-7--------------||----------------------|---------------------||
|-7--------------||----7-7-9-7---7-7-9-7-|---7-7-9-7-----------||
|-5------------4-||o---5-5-5-5---5-5-5-5-|---5-5-5-5-------4--o||
|----------5-7---||----------------------|-------------5-7-----||
|
| Gtr II
|        PM------------------------------------------------|
| E E Q  E E E E     a E E E E a E E E E   a E E E E E E E E   6x
|----------------||----------------------|---------------------||
|-7--------------||o---------------------|--------------------o||
|-7--------------||----------------------|---------------------||
|-7--------------||--6s7-7-7-7-6s7-7-7-7-|-6s7-7-7-7-----------||
|-5------------4-||o-4s5-5-5-5-4s5-5-5-5-|-4s5-5-5-5-------4--o||
|----------5-7---||----------------------|-------------5-7-----||            
Submit corrections


        Somethin Else lessons Hard to play? Try these video lessons and learn fast Somethin Else lessons
        
↑ Back to top | Tablatures and chords for acoustic guitar and electric guitar, ukulele, drums are parodies/interpretations of the original songs. You may use it for private study, scholarship, research or language learning purposes only