Home » E » Eddie Cochran »

Eddie Cochran - Skinny Jim Tabs

Artists:  A B C D E F G H I J K L M N O P Q R S T U V W X Y Z # 

Skinny Jim Tabs

(ver. 1) Click to play this song!
Eddie Cochran
Gtr I (E A D G B E) - 'Eddie Cochran - Electric Guitar '
Gtr II (E A D G B E) - 'Perry Botkin - Electric Guitar '


             1st Verse
  Q=178(8=s8)
  N.C.                       A7
 4/4
  Gtr I
  W           H    E E E E   q  Q  E E E E   q  Q  H
|----------||--------------|---------------|------------|
|----------||--------------|---------------|------------|
|----------||--------------|---------------|------------|
|----------||--------------|---------------|------------|
|----------||--------7-9-7-|-7-------7-9-7-|-7----------|
|----------||--------------|---------------|------------|
|
| Gtr II
| W           W              q  Q  H         q  Q  H
|----------||--------------|-5-------------|-5----------|
|----------||--------------|-5-------------|-5----------|
|----------||--------------|-6-------------|-6----------|
|----------||--------------|-5-------------|-5----------|
|----------||--------------|-7-------------|-7----------|
|----------||--------------|-5-------------|-5----------|


                    D7                                    A7
  E E E E E E E E   E E E E  E E E E   E E E E  E E E E   E E E E  E E E E
|-----------------|------------------|------------------|-------------------|
|-----------------|------------------|------------------|-------------------|
|-----------------|------------------|------------------|-------------------|
|-----------------|-7-7-9-7-10-7-9-7-|-7-7-9-7-10-7-9-7-|-------------------|
|-7-7-7-7-7-7-7-7-|-5-5-5-5--5-5-5-5-|-5-5-5-5--5-5-5-5-|-7-7-9-7-10-7-9-7--|
|-5-5-5-5-5-5-5-5-|------------------|------------------|-5-5-5-5--5-5-5-5--|
|
| E E E E E E E E   E E E E  E E E E   E E E E  E E E E   E E E E  E E E E
|-5-5-5-5-5-5-5-5-|------------------|------------------|-------------------|
|-5-5-5-5-5-5-5-5-|------------------|------------------|-------------------|
|-6-6-6-6-6-6-6-6-|------------------|------------------|-------------------|
|-5-5-5-5-5-5-5-5-|-7-7-9-7-10-7-9-7-|-7-7-9-7-10-7-9-7-|-------------------|
|-7-7-7-7-7-7-7-7-|-5-5-5-5--5-5-5-5-|-5-5-5-5--5-5-5-5-|-7-7-9-7-10-7-9-7--|
|-5-5-5-5-5-5-5-5-|------------------|------------------|-5-5-5-5--5-5-5-5--|


                     E7                   D7                 A7
  E E E E  E E E E   E E  E E  E E  E E   E E E E  E E E E   E E E E  E E E E
|------------------|--------------------|------------------|-------------------|
|------------------|--------------------|------------------|-------------------|
|------------------|--------------------|------------------|-------------------|
|------------------|-9-9-11-9-12-9-11-9-|-7-7-9-7-10-7-9-7-|-------------------|
|-7-7-9-7-10-7-9-7-|-7-7--7-7--7-7--7-7-|-5-5-5-5--5-5-5-5-|-7-7-9-7-10-7-9-7--|
|-5-5-5-5--5-5-5-5-|--------------------|------------------|-5-5-5-5--5-5-5-5--|
|
| E E E E  E E E E   E E  E E  E E  E E   E E E E  E E E E   E E E E  E E E E
|------------------|--------------------|------------------|-------------------|
|------------------|--------------------|------------------|-------------------|
|------------------|--------------------|------------------|-------------------|
|------------------|-9-9-11-9-12-9-11-9-|-7-7-9-7-10-7-9-7-|-------------------|
|-7-7-9-7-10-7-9-7-|-7-7--7-7--7-7--7-7-|-5-5-5-5--5-5-5-5-|-7-7-9-7-10-7-9-7--|
|-5-5-5-5--5-5-5-5-|--------------------|------------------|-5-5-5-5--5-5-5-5--|


                     2nd - 5th Verses
                  $
                      A7
  E E E E E E E E     q  Q  E E E E   q  Q  E E E E   q  Q  H
|-----------------||----------------|---------------|------------|
|-----------------||o---------------|---------------|------------|
|-----------------||----------------|---------------|------------|
|---9-9-9-9-9-9-9-||----------------|---------------|------------|
|---7-7-7-7-7-7-7-||o-7-------7-9-7-|-7-------7-9-7-|-7----------|
|-----------------||----------------|---------------|------------|
|
| E E E E E E E E     q  Q  H         q  Q  H         q  Q  H
|-----------------||--5-------------|-5-------------|-5----------|
|-----------------||o-5-------------|-5-------------|-5----------|
|-----------------||--6-------------|-6-------------|-6----------|
|---9-9-9-9-9-9-9-||--5-------------|-5-------------|-5----------|
|---7-7-7-7-7-7-7-||o-7-------------|-7-------------|-7----------|
|-----------------||--5-------------|-5-------------|-5----------|


                    D7                                    A7
  E E E E E E E E   E E E E  E E E E   E E E E  E E E E   E E E E  E E E E
|-----------------|------------------|------------------|-------------------|
|-----------------|------------------|------------------|-------------------|
|-----------------|------------------|------------------|-------------------|
|-----------------|-7-7-9-7-10-7-9-7-|-7-7-9-7-10-7-9-7-|-------------------|
|-7-7-7-7-7-7-7-7-|-5-5-5-5--5-5-5-5-|-5-5-5-5--5-5-5-5-|-7-7-9-7-10-7-9-7--|
|-5-5-5-5-5-5-5-5-|------------------|------------------|-5-5-5-5--5-5-5-5--|
|
| E E E E E E E E   E E E E  E E E E   E E E E  E E E E   E E E E  E E E E
|-5-5-5-5-5-5-5-5-|------------------|------------------|-------------------|
|-5-5-5-5-5-5-5-5-|------------------|------------------|-------------------|
|-6-6-6-6-6-6-6-6-|------------------|------------------|-------------------|
|-5-5-5-5-5-5-5-5-|-7-7-9-7-10-7-9-7-|-7-7-9-7-10-7-9-7-|-------------------|
|-7-7-7-7-7-7-7-7-|-5-5-5-5--5-5-5-5-|-5-5-5-5--5-5-5-5-|-7-7-9-7-10-7-9-7--|
|-5-5-5-5-5-5-5-5-|------------------|------------------|-5-5-5-5--5-5-5-5--|


                     E7                   D7                 A7
  E E E E  E E E E   E E  E E  E E  E E   E E E E  E E E E   E E E E  E E E E
|------------------|--------------------|------------------|-------------------|
|------------------|--------------------|------------------|-------------------|
|------------------|--------------------|------------------|-------------------|
|------------------|-9-9-11-9-12-9-11-9-|-7-7-9-7-10-7-9-7-|-------------------|
|-7-7-9-7-10-7-9-7-|-7-7--7-7--7-7--7-7-|-5-5-5-5--5-5-5-5-|-7-7-9-7-10-7-9-7--|
|-5-5-5-5--5-5-5-5-|--------------------|------------------|-5-5-5-5--5-5-5-5--|
|
| E E E E  E E E E   E E  E E  E E  E E   E E E E  E E E E   E E E E  E E E E
|------------------|--------------------|------------------|-------------------|
|------------------|--------------------|------------------|-------------------|
|------------------|--------------------|------------------|-------------------|
|------------------|-9-9-11-9-12-9-11-9-|-7-7-9-7-10-7-9-7-|-------------------|
|-7-7-9-7-10-7-9-7-|-7-7--7-7--7-7--7-7-|-5-5-5-5--5-5-5-5-|-7-7-9-7-10-7-9-7--|
|-5-5-5-5--5-5-5-5-|--------------------|------------------|-5-5-5-5--5-5-5-5--|


                                        Bridge
  1.                 2.
    E7                  E7               A7
  E E E E E E E E     E E E E E E E E    E E E E  E E E E   E E E E  E E E E
|------------------||-----------------||------------------|-------------------|
|-----------------o||-----------------||------------------|-------------------|
|------------------||-----------------||------------------|-------------------|
|---9-9-9-9-9-9-9--||---9-9-9-9-9-9-9-||------------------|-------------------|
|---7-7-7-7-7-7-7-o||---7-7-7-7-7-7-7-||-7-7-9-7-10-7-9-7-|-7-7-9-7-10-7-9-7--|
|------------------||-----------------||-5-5-5-5--5-5-5-5-|-5-5-5-5--5-5-5-5--|
|
| E E E E E E E E     E E E E E E E E    E E E E  E E E E   E E E E  E E E E
|------------------||-----------------||------------------|-------------------|
|-----------------o||-----------------||------------------|-------------------|
|------------------||-----------------||------------------|-------------------|
|---9-9-9-9-9-9-9--||---9-9-9-9-9-9-9-||------------------|-------------------|
|---7-7-7-7-7-7-7-o||---7-7-7-7-7-7-7-||-7-7-9-7-10-7-9-7-|-7-7-9-7-10-7-9-7--|
|------------------||-----------------||-5-5-5-5--5-5-5-5-|-5-5-5-5--5-5-5-5--|


                                        D7
  E E E E  E E E E   E E E E  E E E E   E E E E  E E E E   E E E E  E E E E
|------------------|------------------|------------------|-------------------|
|------------------|------------------|------------------|-------------------|
|------------------|------------------|------------------|-------------------|
|------------------|------------------|-7-7-9-7-10-7-9-7-|-7-7-9-7-10-7-9-7--|
|-7-7-9-7-10-7-9-7-|-7-7-9-7-10-7-9-7-|-5-5-5-5--5-5-5-5-|-5-5-5-5--5-5-5-5--|
|-5-5-5-5--5-5-5-5-|-5-5-5-5--5-5-5-5-|------------------|-------------------|
|
| E E E E  E E E E   E E E E  E E E E   E E E E  E E E E   E E E E  E E E E
|------------------|------------------|------------------|-------------------|
|------------------|------------------|------------------|-------------------|
|------------------|------------------|------------------|-------------------|
|------------------|------------------|-7-7-9-7-10-7-9-7-|-7-7-9-7-10-7-9-7--|
|-7-7-9-7-10-7-9-7-|-7-7-9-7-10-7-9-7-|-5-5-5-5--5-5-5-5-|-5-5-5-5--5-5-5-5--|
|-5-5-5-5--5-5-5-5-|-5-5-5-5--5-5-5-5-|------------------|-------------------|


                                                                       To Coda
  A7                                    E7                   D7
  E E E E  E E E E   E E E E  E E E E   E E  E E  E E  E E   E E E E  E E E E
|------------------|------------------|--------------------|-------------------|
|------------------|------------------|--------------------|-------------------|
|------------------|------------------|--------------------|-------------------|
|------------------|------------------|-9-9-11-9-12-9-11-9-|-7-7-9-7-10-7-9-7--|
|-7-7-9-7-10-7-9-7-|-7-7-9-7-10-7-9-7-|-7-7--7-7--7-7--7-7-|-5-5-5-5--5-5-5-5--|
|-5-5-5-5--5-5-5-5-|-5-5-5-5--5-5-5-5-|--------------------|-------------------|
|
| E E E E  E E E E   E E E E  E E E E   E E  E E  E E  E E   E E E E  E E E E
|------------------|------------------|--------------------|-------------------|
|------------------|------------------|--------------------|-------------------|
|------------------|------------------|--------------------|-------------------|
|------------------|------------------|-9-9-11-9-12-9-11-9-|-7-7-9-7-10-7-9-7--|
|-7-7-9-7-10-7-9-7-|-7-7-9-7-10-7-9-7-|-7-7--7-7--7-7--7-7-|-5-5-5-5--5-5-5-5--|
|-5-5-5-5--5-5-5-5-|-5-5-5-5--5-5-5-5-|--------------------|-------------------|


  A7
  E E E E  E E E E   E E E E  E E E E
|------------------|------------------||
|------------------|------------------||
|------------------|------------------||
|------------------|------------------||
|-7-7-9-7-10-7-9-7-|-7-7-9-7-10-7-9-7-||
|-5-5-5-5--5-5-5-5-|-5-5-5-5--5-5-5-5-||
|
| E E E E  E E E E   E E E E  E E E E
|------------------|------------------||
|------------------|------------------||
|------------------|------------------||
|------------------|------------------||
|-7-7-9-7-10-7-9-7-|-7-7-9-7-10-7-9-7-||
|-5-5-5-5--5-5-5-5-|-5-5-5-5--5-5-5-5-||


 Guitar Solo
  A7
  E   E Q      E Q     E   Q     E E    +E   E Q
|-----5------------------|----------------------------|
|-----5----------------5-|-5-------------------5------|
|-7b9---7b9------7b9-----|-7b9-----7b9==(7)r-7-7b9----|
|------------------------|----------------------------|
|------------------------|----------------------------|
|------------------------|----------------------------|
|
| E   E E   E  E E   E E   E   E E E     E   E E   E
|------------------------|----------------------------|
|------------------------|----------------------------|
|------------------------|----------------------------|
|------------------------|----------------------------|
|-7---7-9---7-10-7---9-7-|-7---7-9-7----10---7-9---7--|
|-5---5-5---5--5-5---5-5-|-5---5-5-5-----5---5-5---5--|


  E   E E E    +E   Q   E      +E   E E    +E  +E   E Q
|----------------------------|------------------------------|
|-----5-5-----------5--------|------5---------------5-------|
|-7b9-----7b9==(7)r-----7b9==|=(7)r---7b9==(7)-(7)r---7b9---|
|----------------------------|------------------------------|
|----------------------------|------------------------------|
|----------------------------|------------------------------|
|
| E   E E E     E   E E E       E   E E     E   E   E E   E
|----------------------------|------------------------------|
|----------------------------|------------------------------|
|----------------------------|------------------------------|
|----------------------------|------------------------------|
|-7---7-9-7----10---7-9-7----|--7---7-9-----7--10---7-9---7-|
|-5---5-5-5-----5---5-5-5----|--5---5-5-----5---5---5-5---5-|


  D7
  |--3--| |--3--|  |--3--| |--3--|
  E E   E E E   E  E E   E E E   E
|-8p7p==5-8p7p==5--8p7p==5---------|
|-8p7p==5-8p7p==5--8p7p==5-8p7p==5-|
|--------------------------8p7p==5-|
|----------------------------------|
|----------------------------------|
|----------------------------------|
|
| E   E   E   E    E   E   E   E
|----------------------------------|
|----------------------------------|
|----------------------------------|
|-7---7---9---7---10---7---9---7---|
|-5---5---5---5----5---5---5---5---|
|----------------------------------|


  |--3--| |--3--|  |--3--| |--3--|
  E E   E E E   E  E E   E E E   E
|-8p7p==5-8p7p==5--8p7p==5---------|
|-8p7p==5-8p7p==5--8p7p==5-8p7p==5-|
|--------------------------8p7p==5-|
|----------------------------------|
|----------------------------------|
|----------------------------------|
|
| E   E   E   E    E   E   E   E
|----------------------------------|
|----------------------------------|
|----------------------------------|
|-7---7---9---7---10---7---9---7---|
|-5---5---5---5----5---5---5---5---|
|----------------------------------|


  A7
                                          |----3-----|
  E   E Q      E   E E   E   E   E E   E  E    +E    E +E  E
|-----5------------5-----5-|-----5-----5-------------------5-|
|-----5------------5-----5-|-----5-----5--7pb9r(7)p==5-(5)-5-|
|-7b9---7b9----7b9---7b9---|-7b9---7b9----7pb9r(7)p==5-(5)---|
|--------------------------|---------------------------------|
|--------------------------|---------------------------------|
|--------------------------|---------------------------------|
|
| E   E E   E  E   E E   E   E   E E   E  E        E    E  E
|--------------------------|---------------------------------|
|--------------------------|---------------------------------|
|--------------------------|---------------------------------|
|--------------------------|---------------------------------|
|-7---7-9---7-10---7-9---7-|-7---7-9---7-10--------7----9--7-|
|-5---5-5---5--5---5-5---5-|-5---5-5---5--5--------5----5--5-|


  E7
  |--3--|  |--3--|  |--3--|  |--3--|
  E E   E  E E   E  E E   E  E E   E
|-8p7p==5--8p7p==5--8p7p==5----------|
|-8p7p==5--8p7p==5--8p7p==5--8p7p==5-|
|----------------------------8p7p==5-|
|------------------------------------|
|------------------------------------|
|------------------------------------|
|
| E   E    E   E    E   E    E   E
|------------------------------------|
|------------------------------------|
|------------------------------------|
|-9---9---11---9---12---9---11---9---|
|-7---7----7---7----7---7----7---7---|
|------------------------------------|


  D7                                 A7
  |--3--| |--3--|  |--3--| |--3--|
  E E   E E E   E  E E   E E E   E   E   E Q      E   E E   E
|-8p7p==5-8p7p==5--8p7p==5---------|-----5------------5-----5--|
|-8p7p==5-8p7p==5--8p7p==5-8p7p==5-|-----5------------5-----5--|
|--------------------------8p7p==5-|-7b9---7b9----7b9---7b9----|
|----------------------------------|---------------------------|
|----------------------------------|---------------------------|
|----------------------------------|---------------------------|
|
| E   E   E   E    E   E   E   E     E   E E   E  E   E E   E
|----------------------------------|---------------------------|
|----------------------------------|---------------------------|
|----------------------------------|---------------------------|
|-7---7---9---7---10---7---9---7---|---------------------------|
|-5---5---5---5----5---5---5---5---|-7---7-9---7-10---7-9---7--|
|----------------------------------|-5---5-5---5--5---5-5---5--|


                             Outro
              D.S. al Coda &
  E7                          N.C.          A#9A9
                  ~
  |--3--| |--3--|
  E E   E E E   E H           W          Q   E  E  +H        +W
|-8p7p==5------------------||----------|------------------|---------*|
|-8p7p==5-8p7p==5----------||----------|------------------|---------*|
|---------8p7p==5----------||----------|------------------|---------*|
|-----------------7--------||----------|------------------|---------*|
|--------------------------||----------|-----7--7--(7)----|--(7)----*|
|--------------------------||----------|-----5--5--(5)----|--(5)----*|
|
| E   E   E   E   E E E E     W          Q   E  E  +H        +W
|--------------------------||----------|----13-12-(12)----|-(12)----*|
|--------------------------||----------|----13-12-(12)----|-(12)----*|
|--------------------------||----------|----13-12-(12)----|-(12)----*|
|-----9---9---9---9-9-9-9--||----------|----12-11-(11)----|-(11)----*|
|-----7---7---7---7-7-7-7--||----------|----13-12-(12)----|-(12)----*|
|--------------------------||----------|------------------|---------*|


            
Submit corrections

↑ Back to top | Tablatures and chords for acoustic guitar and electric guitar, ukulele, drums are parodies/interpretations of the original songs. You may use it for private study, scholarship, research or language learning purposes only