» » »

Eddie Cochran - Jeannie Jeannie Jeannie Tabs

Artists:  A B C D E F G H I J K L M N O P Q R S T U V W X Y Z # 

Jeannie Jeannie Jeannie Tabs

(ver. 1) Click to play this song!
Eddie Cochran
 Rating:
4/5 (4 votes)

 Jeannie Jeannie Jeannie  lessons Tabs too difficult? Try these video lessons and learn fast
 
                Gtr I (Eb Ab Db Gb Bb Eb) - 'Eddie Cochran - Electric Guitar / 1/2 step down'


 Intro
  Q=174
  G
 4/4
  Gtr I (El. Gtr. / 1/2step down)
   E E E E Q  E  E   E Q  E Q  E E   Q  E E E E E E   E E E E E E E E
|------------------|---------------|----------------|-----------------||
|------------------|---------------|----------------|-----------------||
|----0-0-0-0--2-/3-|---3--2-0--0-0-|------0-0-0-0-0-|---2-2-2-2-2-2-2-||
|----0-0-2-0--2-/3-|---3--2-0--2-0-|------2-0-0-2-0-|---0-0-0-0-0-0-0-||
|------------------|---------------|----------------|-----------------||
|-/3---------------|---------------|----------------|-----------------||


   1st - 4th Verses
    $
    $$
    G
    E E E E Q  E E   E E E E Q  E E   E E E E Q  E  E   E E E E Q  E E
||-----------------|----------------|-----------------|-----------------|
||o----------------|----------------|-----------------|-----------------|
||----0-0-0-0--0-0-|---0-0-0-0--0-0-|---0-0-0-0--2-/3-|---3---2-0--0-0--|
||----0-0-2-0--2-0-|---0-0-2-0--2-0-|---0-0-2-0--2-/3-|---3---2-0--2-0--|
||o----------------|----------------|-----------------|-----------------|
||-----------------|----------------|-----------------|-----------------|


  E E E E Q  E E   E E E E Q  E E   E E E E Q  E  E   E E E E Q  E E
|----------------|----------------|-----------------|----------------|
|----------------|----------------|-----------------|----------------|
|---0-0-0-0--0-0-|---0-0-0-0--0-0-|---0-0-0-0--2-/3-|---3---2-0--0-0-|
|---0-0-2-0--2-0-|---0-0-2-0--2-0-|---0-0-2-0--2-/3-|---3---2-0--2-0-|
|----------------|----------------|-----------------|----------------|
|----------------|----------------|-----------------|----------------|


  C                                   G
  E E E E E E E E   E E E E E E E E   E E E E E E E E   E E E E E E E E
|-----------------|-----------------|-----------------|-----------------|
|---1-1-1-1-1-1-1-|---1-1-1-1-1-1-1-|-----------------|-----------------|
|---0-0-2-0-0-2-0-|---0-0-2-0-0-2-0-|---0-0-0-0-0-0-0-|---0-0-0-0-0-0-0-|
|-----------------|-----------------|---0-0-2-0-0-2-0-|---0-0-2-0-0-2-0-|
|-----------------|-----------------|-----------------|-----------------|
|-----------------|-----------------|-----------------|-----------------|


                                                         1.
                        To Dbl. Coda            To Coda
  D                 C                  G
  E E E E E E E E   E E E E E E E E    E E E E E E E E    E E E E E E E E
|-----------------|------------------|------------------|--------------------||
|-----------------|---1-1-1-1-1-1-1--|------------------|-------------------o||
|---2-2-4-2-2-4-2-|---0-0-2-0-0-2-0--|---0-0-0-0-0-0-0--|---0-0-0-0-0-0-0----||
|---0-0-0-0-0-0-0-|------------------|---0-0-2-0-0-2-0--|---0-0-0-0-0-0-0----||
|-----------------|------------------|------------------|-------------------o||
|-----------------|------------------|------------------|--------------------||


                   Bridge
  2.
                    C                                   G
  E E E E Q  E E    E E E E E E E E   E E E E E E E E   E E E E E E E E
|----------------||-----------------|-----------------|-----------------|
|----------------||---1-1-1-1-1-1-1-|-1-1-1-1-1-1-1-1-|-----------------|
|---0---0-0--0-0-||---0-0-2-0-0-2-0-|-0-0-0-2-0-0-2-0-|---0-0-0-0-0-0-0-|
|---0---2-0--2-0-||-----------------|-----------------|---0-0-2-0-0-2-0-|
|----------------||-----------------|-----------------|-----------------|
|----------------||-----------------|-----------------|-----------------|


                   C                                  D
  E E E E E E Q    E E E E Q  E E   E E E E E E E E   E E Q  H
|----------------|----------------|-----------------|-------------|
|----------------|---1-1-1-1--1-1-|---1-1-1-1-1-1-1-|-------------|
|---0-0-0-0-0-0--|---0-0-2-0--2-0-|---0-0-2-0-0-2-0-|-2-----------|
|---0-0-2-0-2-3--|----------------|-----------------|-0-----------|
|----------------|----------------|-----------------|-------------|
|----------------|----------------|-----------------|-------------|


                              Guitar Solo
D.S. al Cod&
              G                G
  W           E Q  E Q  E E    E E E E E E E E   Q     E +E  E E E E
|----------||-------------3-||-3-3-3-3-3-3-3-3-|-3-----3-----3-3-3-3--|
|----------||-------------3-||-3-3-3-3-3-3-5-3-|-5b7===5r(5)-3-3-3-3--|
|----------||---0--0-0------||-----------------|-------------------3h=|
|----------||---0--2-0------||-----------------|----------------------|
|----------||---------------||-----------------|----------------------|
|----------||---------------||-----------------|----------------------|


  E E E E E E E E   E E E E E E E E   E E E E E E E E   Q     E +E  E E E E
|---3-3-3-3-3-3-3-|---3-3-3-3-3-3-3-|-3-3-3-3-3-3-3-3-|-3-----3-----3-3-3-3--|
|---3-3-3-3-3-3-3-|---3-3-3-3-3-3-3-|-3-3-3-3-3-3-5-3-|-5b7===5r(5)-3-3-3-3--|
|-4-4-4-4-4-4-4-3h|=4-4-4-4-4-4-4-4-|-----------------|-------------------3h=|
|-----------------|-----------------|-----------------|----------------------|
|-----------------|-----------------|-----------------|----------------------|
|-----------------|-----------------|-----------------|----------------------|


  E E E E E E E E   E E E E E E E E
|---3-3-3-3-3-3-3-|-3-3-3-3-3-3-3----|
|---3-3-3-3-3-3-3-|-3-3-3-3-3-3-3-3/-|
|-4-4-4-4-4-4-4-4-|-4-4-4-4-4-4-4-4/-|
|-----------------|------------------|
|-----------------|------------------|
|-----------------|------------------|


   E E  E E  Q      E  E    E  E  E  E  E     E  E     E
|----8--8-8--8------8--8-|--8--8--8--8--8-----8--8-----8-|
|-/8-8-10-8-10b11--10-10-|-10-10-10-10-10b11-10-10b11-10-|
|-/9---------------------|-------------------------------|
|------------------------|-------------------------------|
|------------------------|-------------------------------|
|------------------------|-------------------------------|


   E  E  E     E  E  E     E  E       E  E     E  E     E  E     E  E
|-10-10-10----10-10-10----10-10----|-10-10----10-10----10-10----10----|
|-11-11-11b12-11-11-11b12-11-11b12-|-11-11b12-11-11b12-11-11b12-11----|
|----------------------------------|-------------------------------10h|
|----------------------------------|----------------------------------|
|----------------------------------|----------------------------------|
|----------------------------------|----------------------------------|


  D                        C
   E  E  E  E  E  E  E E   E E  E E  E       E    E E
|----10-10-10-10-10-10---|---8--8-8--8-------8----8---|
|----10-12-10-12-12-10---|---8-10-8-10b11==(10)r-10-8-|
|-11-------------------8h|=9--------------------------|
|------------------------|----------------------------|
|------------------------|----------------------------|
|------------------------|----------------------------|


                                   Bridge
  G                                 C
  E E E E H       E E E E Q  E E    E E E E E E E E   E E E E E E E E
|-7-7-7-7-7\----|----------------||-----------------|-----------------|
|-8-8-8-8-8\----|----------------||---1-1-1-1-1-1-1-|-1-1-1-1-1-1-1-1-|
|---------------|-0-0-0-0-0--0---||---0-0-2-0-0-2-0-|-0-0-0-2-0-0-2-0-|
|---------------|-0-0-2-2-0--2---||-----------------|-----------------|
|---------------|----------------||-----------------|-----------------|
|---------------|----------------||-----------------|-----------------|


  G                                    C
  E E E E E E E E   E E E E E E Q    E E E E Q  E E
|-----------------|----------------|----------------|
|-----------------|----------------|---1-1-1-1--1-1-|
|---0-0-0-0-0-0-0-|---0-0-0-0-0-0--|---0-0-2-0--2-0-|
|---0-0-2-0-0-2-0-|---0-0-2-0-2-3--|----------------|
|-----------------|----------------|----------------|
|-----------------|----------------|----------------|


                 D.S.S. al Dbl. Coda       &&
                    D
  E E E E E E E E   E E Q  H      W           q  Q  Q  E E   +E  E Q  H
|-----------------|-------------|----------||-3--3--3--3-3-|-(3)-----------*|
|---1-1-1-1-1-1-1-|-------------|----------||-3--3--5--5-3-|-(3)-----------*|
|---0-0-2-0-0-2-0-|-2-----------|----------||-4--4--5--5-4-|-(4)-----------*|
|-----------------|-0-----------|----------||--------------|---------------*|
|-----------------|-------------|----------||--------------|---------------*|
|-----------------|-------------|----------||--------------|---------------*|


            
Submit corrections


        Jeannie Jeannie Jeannie  lessons Hard to play? Try these video lessons and learn fast Jeannie Jeannie Jeannie  lessons
        
↑ Back to top | Tablatures and chords for acoustic guitar and electric guitar, ukulele, drums are parodies/interpretations of the original songs. You may use it for private study, scholarship, research or language learning purposes only