Home » E » Eddie Cochran »

Eddie Cochran - Hallelujah I Love Her So Tabs

Artists:  A B C D E F G H I J K L M N O P Q R S T U V W X Y Z # 

Hallelujah I Love Her So Tabs

(ver. 1) Click to play this song!
Eddie Cochran
 Intro
  Q=130
  N.C.             G      Bm7      C       D7
 4/4
  Gtr I (Clean El. Gtr.)
  W             Q  E E Q  E E   Q  E E +E  Q   E
|-------------|---------------|------------------|
|-------------|---------------|------------------|
|-------------|---------------|------------------|
|-------------|---------------|------------------|
|-------------|--------2--x-2-|-3--x-4-(4)-5---5-|
|-------------|-3--x-3--------|------------------|
|
| Gtr II (Clean El. Gtr.)
| W             Q  q   Q  q     Q  q    E  Q   E
|-------------|----3------2---|----0-------2---2-|
|-------------|----3------3---|----1-------1---1-|
|-------------|----4------2---|----0-------2---2-|
|-------------|----5------4---|----2-------------|
|-------------|---------------|------------------|
|-------------|---------------|------------------|
|
| Gtrs III, IV (Horns & Strings arr. for Gtr.)
| H    E E Q    Q  Q   Q  Q     Q  Q    E  E Q
|-------------|---------------|------------------|
|-------------|---------------|------------------|
|--------2-3--|---------------|------------2-4---|
|-------------|---------------|------------------|
|-------------|--------2------|-3----------------|
|-------------|-3-------------|------------------|


     G      Bm7      C       D7
  Q  E E Q  E E   Q  E E +E  Q   E
|---------------|--------------------||
|---------------|--------------------||
|---------------|--------------------||
|---------------|--------------------||
|--------2--x-2-|-3--x-4-(4)-5---5---||
|-3--x-3--------|--------------------||
|
| Q  q   Q  q     Q  q    E  Q   E
|----3------2---|----0-------2---2---||
|----3------3---|----1-------1---1---||
|----4------2---|----0-------2---2---||
|----5------4---|----2---------------||
|---------------|--------------------||
|---------------|--------------------||
|
| Q  Q   Q  Q     Q  Q    E  E Q
|---------------|--------------------||
|---------------|--------------------||
|---------------|------------2-4-----||
|---------------|--------------------||
|--------2------|-3------------------||
|-3-------------|--------------------||


   1szt - 3rd Verses
    $
       G      Bm7      C       D7         G      Bm7      C       D7
    Q  E E Q  E E   Q  E E +E  Q   E   Q  E E Q  E E   Q  E E +E  Q   E
||----------------|------------------|---------------|-------------------||
||o---------------|------------------|---------------|-------------------||
||----------------|------------------|---------------|-------------------||
||----------------|------------------|---------------|-------------------||
||o--------2--x-2-|-3--x-4-(4)-5---5-|--------2--x-2-|-3--x-4-(4)-5---5--||
||--3--x-3--------|------------------|-3--x-3--------|-------------------||
|
|   Q  q   Q  q     Q  q    E  Q   E   Q  q   Q  q     Q  q    E  Q   E
||-----3------2---|----0-------2---2-|----3------2---|----0-------2---2--||
||o----3------3---|----1-------1---1-|----3------3---|----1-------1---1--||
||-----4------2---|----0-------2---2-|----4------2---|----0-------2---2--||
||-----5------4---|----2-------------|----5------4---|----2--------------||
||o---------------|------------------|---------------|-------------------||
||----------------|------------------|---------------|-------------------||
|
|   Q  Q   Q  Q     Q  Q    E  E Q     Q  Q   Q  Q     Q  Q    E  E Q
||----------------|------------------|---------------|-------------------||
||o---------------|------------------|---------------|-------------------||
||----------------|------------2-4---|---------------|------------2-4----||
||----------------|------------------|---------------|-------------------||
||o--------2------|-3----------------|--------2------|-3-----------------||
||--3-------------|------------------|-3-------------|-------------------||


 Chorus
  G                      B5     C              C#°     D7
  Q  Q  E E Q    Q  Q  E E Q    Q  Q  E E Q    Q  Q  E E E E
|--------------|--------------|--------------|---------------|
|--------------|--------------|--------------|---------------|
|--------------|--------------|--------------|---------------|
|--------------|---------4-4--|-5-------5-5--|-5-------7-7-7-|
|-5-------5-5--|-5-------2-2--|-3-------3-3--|-4-------5-5-5-|
|-3-------3-3--|-3------------|--------------|---------------|
|
| Q  Q  H        Q  Q  H        Q  Q  H        Q  Q  E E E E
|-3------------|-3------------|-0------------|-3-------2-2-2-|
|-3------------|-3------------|-1------------|-2-------1-1-1-|
|-4------------|-4------------|-0------------|-3-------2-2-2-|
|-5------------|-5------------|-2------------|-2-------------|
|--------------|--------------|--------------|---------------|
|--------------|--------------|--------------|---------------|
|
| Q  Q  H        Q  Q  E E Q    Q  Q  E E Q    Q  Q  E E Q
|--------------|--------------|--------------|-3-------------|
|--------------|---------2-3--|-5-------3-5--|---------------|
|--------------|--------------|--------------|---------------|
|-5------------|-5------------|--------------|---------5-7---|
|--------------|--------------|--------------|---------------|
|--------------|--------------|--------------|---------------|


                         To Coda
     G      Bm7      Em     Bm7       Am7    D7       G
  Q  E E Q  E E   Q  E E Q  E E    Q  E E Q  E E   Q  E E E E Q
|---------------|----------------|---------------|----------------||
|---------------|----------------|---------------|----------------||
|---------------|----------------|---------------|----------------||
|---------------|-2--x-2---------|---------------|----------------||
|--------2--x-2-|--------2--x-2--|--------5--x-5-|----------2-2---||
|-3--x-3--------|----------------|-5--x-5--------|-3--x-3-3-------||
|
| Q  q   Q  q     Q  q   Q  q      Q  q   Q  q     Q  q   Q   q
|----3------2---|----0------2----|----0------2---|----3-------3---||
|----3------3---|----0------3----|----1------1---|----3-------3---||
|----4------2---|----0------2----|----0------2---|----4-------4---||
|----5------4---|-----------4----|----2----------|----5-------5---||
|---------------|----------------|---------------|----------------||
|---------------|----------------|---------------|----------------||
|
| H      H        H      H         H      H        H      H
|---------------|----------------|---------------|----------------||
|---------------|----------------|-3------1------|----------------||
|-4------4------|-4------4-------|---------------|-4--------------||
|---------------|----------------|---------------|----------------||
|---------------|----------------|---------------|----------------||
|---------------|----------------|---------------|----------------||


 Bridge
  1.
  C              C#°            D7             G
  Q  Q  E E Q    Q  Q  E E Q    Q  Q  E E Q    Q  Q  E E Q
|--------------|--------------|--------------|--------------|
|--------------|--------------|--------------|--------------|
|--------------|--------------|--------------|--------------|
|-5-------5-5--|-5-------5-5--|-7-------7-7--|---------4-4--|
|-3-------3-3--|-4-------4-4--|-5-------5-5--|-5-------2-2--|
|--------------|--------------|--------------|-3------------|
|
| Q  Q  H        Q  Q  H        Q  Q  H        Q  Q  H
|-0------------|-3------------|-2------------|-3------------|
|-1------------|-2------------|-1------------|-3------------|
|-0------------|-3------------|-2------------|-4------------|
|-2------------|-2------------|--------------|-5------------|
|--------------|--------------|--------------|--------------|
|--------------|--------------|--------------|--------------|
|
| Q  Q  E E Q    Q  Q  E E Q    Q  Q  E E Q    Q  Q  E E Q
|--------------|--------------|--------------|--------------|
|--------------|--------------|--------------|--------------|
|-2-------2-2--|-3-------3-3--|-4-------4-4--|--------------|
|--------------|--------------|--------------|-5-------5-5--|
|--------------|--------------|--------------|--------------|
|--------------|--------------|--------------|--------------|


  C              C#°            D7
  Q  Q  E E Q    Q  Q  E E Q    Q  Q  H      W
|--------------|--------------|------------|-------||
|--------------|--------------|------------|------o||
|--------------|--------------|------------|-------||
|-5-------5-5--|-5-------5-5--|-7----------|-------||
|-3-------3-3--|-4-------4-4--|-5----------|------o||
|--------------|--------------|------------|-------||
|
| Q  Q  H        Q  Q  H        Q  Q  H      W
|-0------------|-3------------|-2----------|-------||
|-1------------|-2------------|-1----------|------o||
|-0------------|-3------------|-2----------|-------||
|-2------------|-2------------|------------|-------||
|--------------|--------------|------------|------o||
|--------------|--------------|------------|-------||
|
| Q  Q  E E Q    Q  Q  E E Q    Q  Q  H      W
|--------------|--------------|------------|-------||
|--------------|--------------|------------|------o||
|-2-------2-2--|-3-------3-3--|-2----------|-------||
|--------------|--------------|------------|-------||
|--------------|--------------|------------|------o||
|--------------|--------------|------------|-------||


 Guitar Solo
  2.
  N.C.
  Q  E E Q   E E   Q           E E +E  Q   E
|----------------|---------------------------|
|----------------|---------------------------|
|----------------|---------------------------|
|----------------|---------------------------|
|--------2---x-2-|-3-----------x-4-(4)-5---5-|
|-3--x-3---------|---------------------------|
|
| H      E E E E   E     E     E E  E  E Q
|----------3-3-3-|-6b6.5-6b6.5-3-------------|
|----------3-3-3-|-5b5.5-5b5.5-3-6--3--------|
|----------------|---------------5--3--------|
|----------------|---------------------5-----|
|----------------|---------------------------|
|----------------|---------------------------|
|
| Q  Q   E E Q     H                E  E Q
|----------------|---------------------------|
|----------------|---------------------------|
|-4--5---7-------|---------------------------|
|-5--7---9-5-----|---------------------5-7---|
|----------5-----|---------------------7-8---|
|----------------|---------------------------|


  Q  E E Q   E     E   Q    E E +E   Q     E
|--------------------|-----------------------|
|--------------------|-----------------------|
|--------------------|-----------------------|
|--------------------|-----------------------|
|--------2---x-----2-|-3----x-4-(4)--5-----5-|
|-3--x-3-------------|-----------------------|
|
|                                |--3--|
| H      E E E     E   Q    E E  E E   E Q
|--------------------|-----------------------|
|--------------------|-----------------------|
|------------3b3.5---|-5b7--5-3--5p3---------|
|----------5-------5-|-----------------5-----|
|--------------------|-----------------------|
|--------------------|-----------------------|
|
| Q  Q   E E Q         H         E   E   Q
|--------------------|-----------------------|
|--------------------|-----------------------|
|-4--5---7-----------|-----------------------|
|-5--7---9-5---------|---------------5---7---|
|----------5---------|---------------7---8---|
|--------------------|-----------------------|


  G5                                B5
  Q   Q   E    E Q     Q      Q   E E Q
|--------------------|--------------------|
|--------------------|--------------------|
|--------------------|--------------------|
|--------------------|--------------4-4---|
|-5------------5-5---|-5------------2-2---|
|-3------------3-3---|-3------------------|
|
| E E E E Q      E E   Q      E E E E E E
|-----6-8-8b10---8---|-6b6.5--------------|
|---8--------------8-|--------8-6---------|
|--------------------|------------7-6-5-3-|
|--------------------|--------------------|
|--------------------|--------------------|
|--------------------|--------------------|
|
| Q   Q   H            Q      Q   E E E E
|--------------------|--------------------|
|--------------------|--------------3-3-3-|
|-3------------------|-3------------------|
|--------------------|--------------------|
|--------------------|--------------------|
|--------------------|--------------------|


  C5                              C#°        D5
  Q     Q       E   E   Q         Q    Q   E E E E
|-------------------------------|-------------------|
|-------------------------------|-------------------|
|-------------------------------|-------------------|
|-5-----------------5---5-------|-5----------7-7-7--|
|-3-----------------3---3-------|-4----------5-5-5--|
|-------------------------------|-------------------|
|
| |-3-|         |--3--|
| E E E E     E E E   E E     E   Q    E E E E E E
|-------------------------------|-------------------|
|-------------------------------|-5b6--5-3-5-3------|
|-5p3---3b3.5---5p3-----3b3.5---|-5b6--5-3-5-3-5-5--|
|-----5-------5-------5-------5-|--------------5-5--|
|-------------------------------|-------------------|
|-------------------------------|-------------------|
|
| Q     Q       E   E   Q         Q    Q   H
|-------------------------------|-3-----------------|
|-5-----------------5---5-------|-------------------|
|-------------------------------|-------------------|
|-------------------------------|-------------------|
|-------------------------------|-------------------|
|-------------------------------|-------------------|


  Q     E   E   Q       E     E       Q       E E  Q   E E
|-----------------------------------|----------------------|
|-----------------------------------|----------------------|
|-----------------------------------|----------------------|
|-----------------------------------|-2-------x-2----------|
|---------------2-------x-----2-----|--------------2---x-2-|
|-3-----x---3-----------------------|----------------------|
|
| |-3-| |--3--| |--3--| |---3---|
| E E E E E   E E E   E E   E   E     E     E E E +Q   E E
|-----3-6-3-------------------------|-6b6.5-3---3-(3)------|
|-3-6---------6-3-----3-----3-------|-5b5.5-3-6-3-(3)----3-|
|-----------------6b7---6b7-----6b7-|--------------------3-|
|-----------------------------------|------------------5---|
|-----------------------------------|----------------------|
|-----------------------------------|----------------------|
|
| H             H                     H            H
|-----------------------------------|----------------------|
|-----------------------------------|----------------------|
|-4-------------4-------------------|-4------------4-------|
|-----------------------------------|----------------------|
|-----------------------------------|----------------------|
|-----------------------------------|----------------------|


                             D.S. al Coda
  Q    E E Q     E     E   Q  E E Q  E E
|------------------------|-----------------||
|------------------------|-----------------||
|------------------------|-----------------||
|------------------------|-----------------||
|----------5-----x-----5-|-----------------||
|-5----x-5---------------|-3--x-3-3--x-3---||
|
|          |-3-|
| Q    E E E E E E     E   W
|------------------------|-----------------||
|-5b6--5-3-5p3---3b3.5---|-----------------||
|-5b6--5-3-5p3---3b3.5---|-----------------||
|--------------5-------5-|-----------------||
|------------------------|-----------------||
|------------------------|-----------------||
|
| H        H               H      H
|------------------------|-----------------||
|-3--------1-------------|-----------------||
|------------------------|-4---------------||
|------------------------|-----------------||
|------------------------|-----------------||
|------------------------|-----------------||


 Outro
  &
     C      D7       Em7          C      D7       Em7
  Q  E E Q  E E   Q  H.        Q  E E Q  E E   Q  H.
|---------------|------------|---------------|----------|
|---------------|------------|---------------|----------|
|---------------|------------|---------------|----------|
|---------------|----2-------|---------------|----2-----|
|--------5--x-5-|------------|--------5--x-5-|----------|
|-5--x-5--------|-3----------|-5--x-5--------|-3--------|
|
| Q  Q   Q  Q     Q  H.        Q  Q   Q  Q     Q  H.
|----0------2---|----0-------|----0------2---|----0-----|
|----1------1---|----3-------|----1------1---|----3-----|
|----0------2---|----0-------|----0------2---|----0-----|
|----2----------|----2-------|----2----------|----2-----|
|---------------|------------|---------------|----------|
|---------------|------------|---------------|----------|
|
| H      H        Q  H.        H      H        Q  H.
|---------------|------------|---------------|----------|
|-3------1------|----3-------|-3------1------|----3-----|
|---------------|-4----------|---------------|-4--------|
|---------------|------------|---------------|----------|
|---------------|------------|---------------|----------|
|---------------|------------|---------------|----------|


     C      D7       Em7
                               |-3-| |-3-| |-3-| |-3-|
  Q  E E Q  E E   Q  H.        E E E E E E E E E E E E   Q  Q  H
|---------------|------------|-------------------------|------------|
|---------------|------------|-------------------------|------------|
|---------------|------------|-------------------------|------------|
|---------------|----2-------|-------------------------|------------|
|--------5--x-5-|------------|-0-0-0-2-2-2-3-3-3-4-4-4-|-5----------|
|-5--x-5--------|-3----------|-------------------------|------------|
|
|                              |-3-| |-3-| |-3-| |-3-|
| Q  q   q  q     Q  H.        E E E E E E E E E E E E   Q  Q  H
|----0------2---|----0-------|-------------------------|------------|
|----1------1---|----3-------|-------------------------|------------|
|----0------2---|----0-------|-------------------------|------------|
|----2----------|----2-------|-------------------------|------------|
|---------------|------------|-0-0-0-2-2-2-3-3-3-4-4-4-|-5----------|
|---------------|------------|-------------------------|------------|
|
|                              |-3-| |-3-| |-3-| |-3-|
| H      H        Q  H.        E E E E E E E E E E E E   Q  Q  H
|---------------|------------|-------------------------|------------|
|-3------1------|----3-------|-------------------------|------------|
|---------------|-4----------|-2-2-2-4-4-4-5-5-5-6-6-6-|-7----------|
|---------------|------------|-------------------------|------------|
|---------------|------------|-------------------------|------------|
|---------------|------------|-------------------------|------------|


                                       H.=H
     G      Bm7       C       D7     N.C.
  Q  E E Q  E E   Q   E E +E  Q  E   Q   Q   H
|---------------|------------------|---------------------|
|---------------|------------------|---------------------|
|---------------|------------------|---------------------|
|---------------|------------------|---------------------|
|--------2--x-2-|-3---x-4-(4)-5--5-|-5-------------------|
|-3--x-3--------|------------------|---------------------|
|
|                                            |--3--|
| Q  q   Q  q     Q   q    E  Q  E   E E E E E  E  E E E
|----3------2---|-----0-------2--2-|---6-3---------------|
|----3------3---|-----1-------1--1-|---5-3-6-3-(3)---5---|
|----4------2---|-----0-------2--2-|-------5-3h=4----5---|
|----5------4---|-----2------------|---------------5---5-|
|---------------|------------------|---------------------|
|---------------|------------------|---------------------|
|
| Q  Q   Q  Q     E E E E  E  Q  E   Q   Q   H
|---------------|------------------|---------------------|
|---------------|-5---5-6-----7--6-|-8-------------------|
|--------4------|---7--------------|---------------------|
|-5-------------|------------------|---------------------|
|---------------|------------------|---------------------|
|---------------|------------------|---------------------|


              G
  Q         E E +H                  +W
|-------------3-(3)---------------|-(3)----------------------*|
|-------------3-(3)---------------|-(3)----------------------*|
|-------------4-(4)---------------|-(4)----------------------*|
|-------------5-(5)---------------|-(5)----------------------*|
|-------------5-(5)---------------|-(5)----------------------*|
|-------------3-(3)---------------|-(3)----------------------*|
|
| |---3---|         |-3-|            |----6-----|
| E  E    E E E +E  S S S E   S S    S  S S S S S E E +H
|-------------3-(3)-----3-5b6-3---|-------3------------------*|
|-3-(3)-------3-(3)---3---------6-|-----3--------------------*|
|-3h=4------5-4-(4)-4-------------|--4------5p4p3------------*|
|---------5---5-(5)---------------|---------------5-3-(3)----*|
|---------------------------------|--------------------------*|
|---------------------------------|--------------------------*|
|
| E     E   E E +H                  +W
|---------------------------------|--------------------------*|
|---------------------------------|--------------------------*|
|-------5---5-4-(4)---------------|-(4)----------------------*|
|---------------------------------|--------------------------*|
|---------------------------------|--------------------------*|
|---------------------------------|--------------------------*|
            
Submit corrections

↑ Back to top | Tablatures and chords for acoustic guitar and electric guitar, ukulele, drums are parodies/interpretations of the original songs. You may use it for private study, scholarship, research or language learning purposes only