» » »

Eddie Cochran - Cherished Memories Bass

Artists:  A B C D E F G H I J K L M N O P Q R S T U V W X Y Z # 

Cherished Memories Bass

(ver. 1) Click to play this song!
Eddie Cochran
 Rating:
4.3/5 (28 votes)

 Cherished Memories lessons Tabs too difficult? Try these video lessons and learn fast
 
                Intro:  (DRUM START)

G|-------------------------------------|
D|-7----4-------------7----4-----------|
A|-----------5----7-------------5----7-|
E|-------------------------------------|

Verse 1:
G|-------------------------------------------------------------------|
D|-7--7---4--4----------------7--7---4--4----------------7--7---4--4-|
A|--------------5--5---7--7----------------5--5---7--7---------------|
E|-------------------------------------------------------------------|

G|-------------|
D|-------------|
A|-5--5---7--7-|
E|-------------|

Verse 2:
G|-------------------------------------------------------------------|
D|-7--7---4--4----------------7--7---4--4----------------7--7--------|
A|--------------5--5---7--7----------------5--5---7--7----------5--5-|
E|-------------------------------------------------------------------|

G|------------|
D|------------|
A|------------|
E|-5--5--5--5-|

Bridge:
G|------------------------------------------------------------------------|
D|---4--7--4------------------------------------------4--7--4-------------|
A|-5-------------4--7--4--------2-------------------5-------------4--7--4-|
E|-------------5-----------0--3---3----5--5--5--5---------------5---------|

G|------------------------|
D|------------------------|
A|---6--9--6---7--5--4----|
E|-7--------------------7-|

Verse 3:
G|-------------------------------------------------------------------|
D|-7--7---4--4----------------7--7---4--4----------------7--7--------|
A|--------------5--5---7--7----------------5--5---7--7----------5--5-|
E|-------------------------------------------------------------------|

G|------------|
D|-7--7-------|
A|-------7--7-|
E|------------|

Interlude:
G|------------------------------------------------------------------|
D|------------------------------------------------------------------|
A|--------------5--5---7--7----------------5--5---7--7---------5--5-|
E|-5--5---2--2----------------5--5---2--2----------------5--5-------|

G|------------|
D|------------|
A|------------|
E|-5--5--5--5-|

Bridge:
G|-----------------------------------------------------------------------|
D|---4--7--4-----------------6--9--6-----------------4--7--4-------------|
A|-5-------------4--7--4---7-----------------------5-------------4--7--4-|
E|-------------5----------------------5--5--5--5---------------5---------|

G|------------------------|
D|------------------------|
A|---6--9--6---7--5--4----|
E|-7--------------------7-|

Verse 4:
G|-----------------------------------------------------|
D|-----------------------------------------------------|
A|--------------5--5---7--7----------------5--5---7--7-|
E|-5--5---2--2----------------5--5---2--2--------------|

Outro:  (Repeat Outro To Fade/End)
G|-----------------------------------------------------|
D|-----------------------------------------------------|
A|--------------5--5---7--7----------------5--5---7--7-|
E|-5--5---2--2----------------5--5---2--2--------------|


            
Submit corrections


        Cherished Memories lessons Hard to play? Try these video lessons and learn fast Cherished Memories lessons
        
↑ Back to top | Tablatures and chords for acoustic guitar and electric guitar, ukulele, drums are parodies/interpretations of the original songs. You may use it for private study, scholarship, research or language learning purposes only