Home » E » Earl Thomas Conley »

Earl Thomas Conley - Holding Her And Loving You Tabs

Artists:  A B C D E F G H I J K L M N O P Q R S T U V W X Y Z # 

Holding Her And Loving You Tabs

(ver. 1) Click to play this song!
Earl Thomas Conley
HOLDING HER AND LOVING YOU
Earl Thomas Conley
Writers : Aldrige/Brasfield


Intro
E-----------3---------------3-----------------3-----
B-------0h1---1---------0h1---1----------0----------
G------0-------0-------0-------0--------0-0--0------
D-----0---------0-----0---------0------0---0--------
A---------------------------------------------------
E---3---------------3----------------3--------------


It's the (G) third hardest (C) thing I'll ever (G) do (C)
Leaving (G) here (D) without (G) you (C)
And the (G) second hardest (C) thing I'll ever (G) do (C)
Is telling (G) her (D) about (G) you
(Am) She's been good to me
When (G) things were going rough
(Am) How can I tell her now
That (D) good ain't good enough
Oh, the (G) hardest thing I'll (C) ever have to (G) do (C)
Is holding (G) her, (D) and loving (G) you (C)

If she'd (G) give me one good (C) reason, I'd be (G) gone (C)
But, she ain't (G) done (D) one thing (G) wrong (C)
So, don't (G) expect me just to (C) walk out of the (G) door (C)
I still love (G) her, (D) but I love you (G) more (C)
(Am) She's been good to me
When (G) things weren't going right
(Am) She made may days long
(D) Before you made my nights
So, the (G) hardest thing I'll (C) ever have to (G) do (C)
Is holding (G) her, (D) and loving (G) you (C)

(Am)    (G)     (Am)     (D)

Oh, the (G) hardest thing I'll (C) ever have to (G) do (C)
Is holding (G) her, (D) and loving (G) you (C)
Girl, it's the (G) hardest thing I'll (C) ever have to (G) do (C)
Holding (G) her (D) and loving (G) you

E-----------3---------------3--------3-----------3-----
B-------0h1---1---------0h1---1--------1---------0-----
G------0-------0-------0-------0---------0-------0-----
D-----0---------0-----0---------0-----------0----0-----
A------------------------------------------------2-----
E---3---------------3----------------------------3-----




Christopher R.
Knoxville, TN
WildCard76 at msn.com
            
Submit corrections

↑ Back to top | Tablatures and chords for acoustic guitar and electric guitar, ukulele, drums are parodies/interpretations of the original songs. You may use it for private study, scholarship, research or language learning purposes only