» » »

Eagles Of Death Metal - So Easy Bass

Artists:  A B C D E F G H I J K L M N O P Q R S T U V W X Y Z # 

So Easy Bass

(ver. 2) Click to play this song!
Eagles Of Death Metal
 Rating:
4/5 (4 votes)


 So Easy lessons Tabs too difficult? Try these video lessons and learn fast
 
                (Live)
-------------------------------------------------------------------------------
-------------------------------------------------------------------------------

Tuning: Standard Tuning

albun version perfect.
Not %100 accurate. Check the tempo yourself to get it going.
Note that the (8) is played only at the beginning then it starts again at the 
6th fret for the rest.

Intro/Verse

G |--------------------------------------8-----10-----8-----8---8---8---8----|
D |-(8)--6-------6-----8-----6------8/10-------------------------------------|
A |--------------------------------------------------------------------------|
E |--------------------------------------------------------------------------|


G |---------------------------------------------------------8-8-8----10--8---|
D |-12--11--9-------9--11--9--12--9--11--9--12--9--11------------------------|
A |--------------------------------------------------------------------------|
E |--------------------------------------------------------------------------|

Chorus?

G |--------------------------------------------------------------------------|
D |--6-----6--6-----6--6----------7-----7--7-----7--7------------------------|
A |--------------------------------------------------------------------------|
E |--------------------------------------------------------------------------|


G |--11----11-11----11-11---------8-----8--8-----8--8------------------------|
D |--------------------------------------------------------------------------|
A |--------------------------------------------------------------------------|
E |--------------------------------------------------------------------------|

G |--------------------------------------------------------------------------|
D |--6-----6--6-----6--6----------7-----7--7-----7--7------------------------|
A |--------------------------------------------------------------------------|
E |--------------------------------------------------------------------------|


G |--11----11-11----11-11---------8--8--8--8--8--8--8--8--8--8--8--8--8------|
D |--------------------------------------------------------------------------|
A |--------------------------------------------------------------------------|
E |--------------------------------------------------------------------------|


G |--------8--8--8--8--8--8--8--8--8--8--8--8--8----6--8--6--8--6------------|
D |-8h10------------------------------------------------------------8--------|
A |--------------------------------------------------------------------------|
E |--------------------------------------------------------------------------|


************************************

| /   slide up
| \   slide down
| h   hammer-on
| p   pull-off
| ~   vibrato
| +   harmonic
| x   Mute note
| b   Bend
| pb  Pre-bend
| br  Bend release
| pbr Pre-bend release
| brb Bend release bend

************************************
            
Submit corrections



        So Easy lessons Hard to play? Try these video lessons and learn fast So Easy lessons
        
↑ Back to top | Tablatures and chords for acoustic guitar and electric guitar, ukulele, drums are parodies/interpretations of the original songs. You may use it for private study, scholarship, research or language learning purposes only