» » »

Eagles Of Death Metal - Anything Cept The Truth Tabs

Artists:  A B C D E F G H I J K L M N O P Q R S T U V W X Y Z # 

Anything Cept The Truth Tabs

(ver. 1) Click to play this song!
Eagles Of Death Metal
 Rating:
2.3/5 (27 votes)

 Anything Cept The Truth  lessons Tabs too difficult? Try these video lessons and learn fast
 
                Tuning:Open G

D|----------------------------------------------------------------------|
B|-----6-6-7-7-6-7---9--8-8-8-8-8---3-3-3-3-3-3---3-3-3-3-3-3------------|
G|-----6-6-6-6-6-6---8--8-8-8-8-8---3-3-3-3-3-3---3-3-3-3-3-3------------| X7
D|-----6-6-8-8-6-8---10-8-8-8-8-8---3-3-3-3-3-3---3-3-3-3-3-3------------|
G|-----6-6-6-6-6-6---8--8-8-8-8-8---3-3-3-3-3-3---3-3-3-3-3-3------------|
D|----------------------------------------------------------------------|

D|----------------------------------------------------------------------|
B|-----6-6-7-7-6-7---9--8-8-8-8-8---3-3-3-3-3-3---6--6--3--3-------------|
G|-----6-6-6-6-6-6---8--8-8-8-8-8---3-3-3-3-3-3---6--6--3--3-------------|
D|-----6-6-8-8-6-8---10-8-8-8-8-8---3-3-3-3-3-3---6--6--3--3-------------|
G|-----6-6-6-6-6-6---8--8-8-8-8-8---3-3-3-3-3-3---6--6--3--3-------------|
D|----------------------------------------------------------------------|

D|----------------------------------------------------------------------|
B|-----6-6-7-7-6-7---9--8-8-8-8-8---3-3-3-3-3-3---3-3-3-3-3-3------------|
G|-----6-6-6-6-6-6---8--8-8-8-8-8---3-3-3-3-3-3---3-3-3-3-3-3------------| X4
D|-----6-6-8-8-6-8---10-8-8-8-8-8---3-3-3-3-3-3---3-3-3-3-3-3------------|
G|-----6-6-6-6-6-6---8--8-8-8-8-8---3-3-3-3-3-3---3-3-3-3-3-3------------|
D|----------------------------------------------------------------------|

D|---------------------------------------------------------------------------|
B|-----8-9--9--8-8---6-6-7-7-6-6---3-3-3-3-3-3---3-3-4-3-4-3-----------------|
G|-----8-8--8--8-8---6-6-6-6-6-6---3-3-3-3-3-3---3-3-3-3-3-3-----------------|
D|-----8-10-10-8-8---6-6-8-8-6-6---3-3-3-3-3-3---3-3-3-3-3-3-----------------|X3
G|-----8-8--8--8-8---6-6-6-6-6-6---3-3-3-3-3-3---3-3-3-3-3-3-----------------|
D|---------------------------------------------------------------------------|

D|-----------------------------------------|
B|-----8-9--9--8-8---6-6-7-7-6-6-----------|
G|-----8-8--8--8-8---6-6-6-6-6-6-----------|
D|-----8-10-10-8-8---6-6-8-8-6-6-----------|
G|-----8-8--8--8-8---6-6-6-6-6-6-----------|
D|-----------------------------------------|

Solo

D|---------------------------------------------------------------------------|
B|---------------------------------------------------------------------------|
G|---------------------------------------------------------------------------|
D|---------------------------------------------------------------------------|X2
G|----3-3-1-3-3-1-3-3-1-3-1-3---3-3-1-3-3-1-3-3-1-3-1-3----------------------|
D|---------------------------------------------------------------------------|
 
REPEAT 
            
Submit corrections


        Anything Cept The Truth  lessons Hard to play? Try these video lessons and learn fast Anything Cept The Truth  lessons
        
↑ Back to top | Tablatures and chords for acoustic guitar and electric guitar, ukulele, drums are parodies/interpretations of the original songs. You may use it for private study, scholarship, research or language learning purposes only