Home » E » Eagles »

Eagles - Tryin Chords

Artists:  A B C D E F G H I J K L M N O P Q R S T U V W X Y Z # 

Tryin Chords

(ver. 1) Click to play this song!
Eagles
 Rating:
4.3/5 (23 votes)
                [Intro]:
 
Guitar 1
 
                                        PM
     E  E  E  E  E  E  Q       E  E  E  Q    E  S  S E
E||--2-----3-----2-----3----|--3------------------------|
B||--3-----3-----3-----3----|--3-----3--L----3--L--L-L--|
G||--2-----2-----2-----2----|--0-----0--L----0--L--L-L--|
D||--0-----0-----0-----0----|--0--------3-------2p-0----|
A||-------------------------|------------------------3--|
E||-------------------------|--3------------------------|
 
 
  Q    E  E  E  E  Q       E  E  E  Q    E  S  S E     Q    E  E  E  E  Q
-------3-----2-----3----|--3------------------------|-------3-----2-----3----|
-------3-----3-----3----|--3-----3--L----3--L--L-L--|-------3-----3-----3----|
-------2-----2-----2----|--0-----0--L----0--L--L-L--|-------2-----2-----2----|
--0----0-----0-----0----|--0--------3-------2p-0----|--0----0-----0-----0----|
------------------------|------------------------3--|------------------------|
------------------------|--3------------------------|------------------------|
 
 
  E  E  E  Q    E  S  S E     Q    E  E  E  E  Q
--3------------------------|-------3-----2-----3----|
--3-----3--L----3--L--L-L--|-------3-----3-----3----|
--0-----0--L----0--L--L-L--|-------2-----2-----2----|
--0--------3-------2p-0----|--0----0-----0-----0----|
------------------------3--|------------------------|
--3------------------------|------------------------|
 
 
  E  E  E  Q    E  S  S E
--3------------------------||
--3-----3--L----3--L--L-L--||
--0-----0--L----0--L--L-L--||
--0--------3-------2p-0----||
------------------------3--||
--3------------------------||
 
 
 
Guitar 2
 
     E  E  Q    Q.     E     Q.     Q    E  S  S E      E  E  Q    Q.     E
E||-----------------------|-------------------------|------------------------|
B||--3--------------------|-------------------------|------------------------|
G||--2-----2----L---------|--0----------------------|---------2----L---------|
D||-----0--------------0--|---------3----L--2p-0----|------0--------------0--|
A||-----------------------|----------------------3--|--/5--------------------|
E||-----------------------|-------------------------|------------------------|
 
 
  Q.     Q    E  S  S E      E  E  Q    Q.     E     Q.     Q    E  S  S E
-------------------------|------------------------|-------------------------|
-------------------------|------------------------|-------------------------|
--0----------------------|---------2----L---------|--0----------------------|
---------3----L--2p-0----|------0--------------0--|---------3----L--2p-0----|
----------------------3--|--/5--------------------|----------------------3--|
-------------------------|------------------------|-------------------------|
 
 
   E  E  Q    Q.     E     Q.     Q    E  S  S E
------------------------|-------------------------||
------------------------|-------------------------||
---------2----L---------|--0----------------------||
------0--------------0--|---------3----L--2p-0----||
--/5--------------------|----------------------3--||
------------------------|-------------------------||
 
 
 
Guitar 3
 
     W                   W                   W
E||-------------------|-------------------|-------------------|
B||-------------------|-------------------|-------------------|
G||-------------------|-------------------|-------------------|
D||-------------------|-------------------|-------------------|
A||-------------------|-------------------|-------------------|
E||-------------------|-------------------|-------------------|
 
 
  W                   E.  S  Q    H           H.           Q
-------------------|-----------------------|--------------------|
-------------------|-----------------------|--------------------|
-------------------|------5s-7----L--------|--L-----------------|
-------------------|-----------------------|--------------------|
-------------------|-----------------------|--------------------|
-------------------|-----------------------|--------------------|
 
 
  E.  S  Q    H           H.           Q
-----------------------|--------------------||
-----------------------|--------------------||
------5s-7----L--------|--L-----------------||
-----------------------|--------------------||
-----------------------|--------------------||
-----------------------|--------------------||
 
 
=============================================================================
 
[Verse] >>> Remember, on the additional verses they mix it up a little so you'll
see some back-to-back D-Dsus4-D-Dsus4 stuff going on to break up the monotony.
 
 
Guitar 1
          Dsus4    D     Dsus4    G5
     Q    E     E  E  E  Q        E  E  E  Q    E  S  S E
E||-------3--------2-----3-----|--3------------------------|
B||-------3--------3-----3-----|--3-----3--L----3--L--L-L--|
G||-------2--------2-----2-----|--0-----0--L----0--L--L-L--|
D||--0----0--------0-----0-----|--0--------3-------2p-0----|
A||----------------------------|------------------------3--|
E||----------------------------|--3------------------------|
 
 
       Dsus4    D     Dsus4    G5
  Q    E     E  E  E  Q        E  E  E  Q    E  S  S E
-------3--------2-----3-----|--3------------------------|
-------3--------3-----3-----|--3-----3--L----3--L--L-L--|
-------2--------2-----2-----|--0-----0--L----0--L--L-L--|
--0----0--------0-----0-----|--0--------3-------2p-0----|
----------------------------|------------------------3--|
----------------------------|--3------------------------|
 
 
       Dsus4    D     Dsus4    G5
  Q    E     E  E  E  Q        E  E  E  Q    E  S  S E
-------3--------2-----3-----|--3------------------------|
-------3--------3-----3-----|--3-----3--L----3--L--L-L--|
-------2--------2-----2-----|--0-----0--L----0--L--L-L--|
--0----0--------0-----0-----|--0--------3-------2p-0----|
----------------------------|------------------------3--|
----------------------------|--3------------------------|
 
 
       Dsus4    D     Dsus4 Dsus4    D     Dsus4    D     Dsus4
  Q    E     E  E  E  E     E        E  E  E     E  E  E  E     E
-------3--------2-----3-----3-----|--2-----3--------2-----3--------|-------|
-------3--------3-----3-----3-----|--3-----3--------3-----3--------|-------|
-------2--------2-----2-----2-----|--2-----2--------2-----2--------|-------|
--0----0--------0-----0-----0-----|--0-----0--------0-----0--------|-------|
----------------------------------|--------------------------------|-------|
----------------------------------|--------------------------------|-------|
 
 
 
Guitar 2
 
      E  E  Q    Q.     E     Q.     Q    E  S  S E      E  E  Q    Q.     E
E||------------------------|-------------------------|------------------------|
B||------------------------|-------------------------|------------------------|
G||---------2----L---------|--0----------------------|---------2----L---------|
D||------0--------------0--|---------3----L--2p-0----|------0--------------0--|
A||--/5--------------------|----------------------3--|--/5--------------------|
E||------------------------|-------------------------|------------------------|
 
 
  Q.     Q    E  S  S E      E  E  Q    Q.     E     Q.     Q    E  S  S E
-------------------------|------------------------|-------------------------|
-------------------------|------------------------|-------------------------|
--0----------------------|---------2----L---------|--0----------------------|
---------3----L--2p-0----|------0--------------0--|---------3----L--2p-0----|
----------------------3--|--/5--------------------|----------------------3--|
-------------------------|------------------------|-------------------------|
 
 
   E  E  Q    Q.     E     W
------------------------|-------------------||
------------------------|-------------------||
---------2----L---------|-------------------||
------0--------------0--|--0----------------||
--/5--------------------|-------------------||
------------------------|-------------------||
 
 
 
Guitar 3
 
      W                   H.           Q        W
E||--------------------|--------------------|--------------------|
B||--------------------|--------------------|--------------------|
G||--------------------|--------------------|--------------------|
D||--------------------|--------------------|--------------------|
A||--/5----------------|--L-----------------|--/5----------------|
E||--------------------|--------------------|--------------------|
 
 
  H.           Q        W                   H.           Q
--------------------|--------------------|--------------------|
--------------------|--------------------|--------------------|
--------------------|--------------------|--------------------|
--------------------|--------------------|--------------------|
--L-----------------|--/5----------------|--L-----------------|
--------------------|--------------------|--------------------|
 
 
   H.           E  E        Q    E  E  Q    Q
-------------------------|-----------------------||
-------------------------|-----------------------||
-------------------------|-----------------------||
-------------------5pbr--|--L----3---------------||
--/5---------------------|----------5--5---------||
-------------------------|-----------------------||
 
 
 
 
=============================================================================
 
[Chorus]
 
 
 
Guitar 1
 
     G5                               Dsus4    D     Dsus4
                                            PM    PM
     E  E  E  Q    E  S  S E     Q    E     E  E  E  Q
E||--3------------------------|-------3--------2-----3-----|
B||--3-----3--L----3--L--L-L--|-------3--------3-----3-----|
G||--0-----0--L----0--L--L-L--|-------2--------2-----2-----|
D||--0--------3-------2p-0----|--0----0-----0--0--0--0-----|
A||------------------------3--|----------------------------|
E||--3------------------------|----------------------------|
 
 
  E  E  E  Q    E  S  S E     Q    E  E  E  E  Q
--3------------------------|-------3-----2-----3----|
--3-----3--L----3--L--L-L--|-------3-----3-----3----|
--0-----0--L----0--L--L-L--|-------2-----2-----2----|
--0--------3-------2p-0----|--0----0--0--0--0--0----|
------------------------3--|------------------------|
--3------------------------|------------------------|
 
 
                                                       C    C    C    C
                                      PM    PM
  E  E  E  Q    E  S  S E     Q    E  E  E  E  Q       Q    Q    Q    Q
--3------------------------|-------3-----2-----3----|----------------------|
--3-----3--L----3--L--L-L--|-------3-----3-----3----|-------1---------1----|
--0-----0--L----0--L--L-L--|-------2-----2-----2----|--0----0----0----0----|
--0--------3-------2p-0----|--0----0--0--0--0--0----|--2----2----2----2----|
------------------------3--|------------------------|--3----3----3----3----|
--3------------------------|------------------------|----------------------|
 
 
  Q    Q    Q    Q
----------------------||
-------3--------------||
-------3---------3----||
--3----3----3----3----||
--1----1----1----1----||
----------------------||
 
 
 
 
 
 
 
Guitar 2
 
     Q.     Q    E  S  S E      E  E  Q    Q.     E     Q.     Q    E  S  S E
E||-------------------------|------------------------|-------------------------|
B||-------------------------|------------------------|-------------------------|
G||--0----------------------|---------2----L---------|--0----------------------|
D||---------3----L--2p-0----|------0--------------0--|---------3----L--2p-0----|
A||----------------------3--|--/5--------------------|----------------------3--|
E||-------------------------|------------------------|-------------------------|
 
 
   E  E  Q    Q.     E     Q.     Q    E  S  S E      E  E  Q    Q.     E
------------------------|-------------------------|------------------------|
------------------------|-------------------------|------------------------|
---------2----L---------|--0----------------------|---------2----L---------|
------0--------------0--|---------3----L--2p-0----|------0--------------0--|
--/5--------------------|----------------------3--|--/5--------------------|
------------------------|-------------------------|------------------------|
 
 
  H        H           W
--------------------|-------------------||
--------------------|-------------------||
--------------------|-------------------||
--5--------5--------|--3----------------||
--3--------3--------|--1----------------||
--------------------|-------------------||
 
 
 
 
Guitar 3
 
      Q.     E  Q    E   E      E  E  E  E   Q    Q
E||-------------------------|--------------------------|
B||-------------------------|---------6----------------|
G||-------------------------|------5-----7~--L---------|
D||--/5------3--L-------/5--|--/7----------------------|
A||-------------------------|--------------------------|
E||-------------------------|--------------------------|
 
 
   E  Q    E  Q    E  E      E  E  E  E   Q    Q       Q.     E  Q    E  E
-------------------------|--------------------------|-----------------------|
-------------------------|---------6----------------|-----------------------|
-------------------------|------5--L--7~--L---------|-----------------------|
--/5-------3--L-------5--|--/7----------------------|--5------3--L-------5--|
-------------------------|--------------------------|-----------------------|
-------------------------|--------------------------|-----------------------|
 
 
   E  E  E  E   Q    Q       W                   W
--------------------------|-------------------|-------------------||
---------6----------------|-------------------|-------------------||
------5-----7~--L---------|--5----------------|-------------------||
--/7----------------------|--5----------------|--3----------------||
--------------------------|--3----------------|--1----------------||
--------------------------|-------------------|-------------------||
 
 
 
 
=============================================================================
 
 
[Guitar solo] - Guitars 1 & 2 play slightly different but very similar things
so I 'm ony putting it down once
 
Guitar 1 (& 2)
 
     D5             F5 F#5    G5
     Q    Q    Q    E  E      E  E  E  E  E  E  E  E     Q    Q    Q    E  E
E||------------------------|--------------------------|-----------------------|
B||--3----3----3-----------|--8-----8-----8-----------|--3----3----3----------|
G||--2----2----2----5--6---|--7-----7-----7-----------|--2----2----2----5--6--|
D||--0----0----0----3--4---|--5--5--5--5--5-----------|--0----0----0----3--4--|
A||------------------------|-----------------2--3--4--|-----------------------|
E||------------------------|--------------------------|-----------------------|
 
 
  E  E  E  E  E  E  E  E     Q    Q    Q    E  E     E  E  E  E  E  E  E  E
--------------------------|-----------------------|--------------------------|
--8-----8-----8-----------|--3----3----3----------|--8-----8-----8-----------|
--7-----7-----7-----------|--2----2----2----5--6--|--7-----7-----7-----------|
--5--5--5--5--5-----------|--0----0----0----3--4--|--5--5--5--5--5-----------|
-----------------2--3--4--|-----------------------|-----------------2--3--4--|
--------------------------|-----------------------|--------------------------|
 
 
  Q    Q    Q    E  E     E  E  E  E  E  E  E  E     Q    Q    Q    Q
-----------------------|--------------------------|----------------------|
--3----3----3----------|--8-----8-----8-----8-----|-------1---------1----|
--2----2----2----5--6--|--7-----7-----7-----7-----|--0----0----0----0----|
--0----0----0----3--4--|--5--5--5--5--5--5--5-----|--2----2----2----2----|
-----------------------|-----------------------0--|--3----3----3----3----|
-----------------------|--------------------------|----------------------|
 
 
  Q    Q    Q    Q
----------------------||
-------3---------3----||
-------3---------3----||
--3----3----3----3----||
--1----1----1----1----||
----------------------||
 
 
 
Guitar 3 >>> This is only the first half of the solo. If you would like to support
my tabbing effort "PM" me to finish this and the entire outro solo for a reasonable fee.
 
 
      S  S  S  S  S  S  S  S  S  S  S  S  S  S  S  S
E||-----10-13----10-13----10-13----10-13----10-13----|
B||--13-------13-------13-------13-------13-------13-|
G||--------------------------------------------------|
D||--------------------------------------------------|
A||--------------------------------------------------|
E||--------------------------------------------------|
 
 
   S  S  S  S  S  S  S  S  S  S  S  S  S  S  S S     H          Q       E   E
--10-13----10-13----10-13----10-13----10-13------|-----------------------------|
--------13-------13-------13-------13-------13-x-|--15b--------15br----13------|
-------------------------------------------------|-------------------------14--|
-------------------------------------------------|-----------------------------|
-------------------------------------------------|-----------------------------|
-------------------------------------------------|-----------------------------|
 
 
  S S  E   E   E   E   E   E   E      E.    E.    E    E    E    Q
----------------------------------|------------------------------------||
----------------------------------|--13----13----13---13---13---13-----||
--L---14--12--10------12--10--12--|--12b---12b---12b--12b--12b--12b----||
------------------12--12----------|------------------------------------||
----------------------------------|------------------------------------||
----------------------------------|------------------------------------||
 
 
 
 
=============================================================================
 
[Interlude]
 
Here's the little "lick's" during the 2nd half of the Interlude:
 
 
     E   E  E  E   E  E  Q       E   E  E  E   E  E  Q
E||---------------------------|---------------------------|
B||-----15--------15----------|-----15--------15----------|
G||-----14--------14----------|-----16--------16----------|
D||---------------------------|---------------------------|
A||---------------------------|---------------------------|
E||---------------------------|---------------------------|
 
 
  E   E  E  E   E  E  Q       E   E  E  E   E  E  Q
---------------------------|---------------------------||
-----15--------15----------|-----15--------15----------||
-----17--------17----------|-----16--------16----------||
---------------------------|---------------------------||
---------------------------|---------------------------||
---------------------------|---------------------------||
            
Submit corrections

↑ Back to top | Tablatures and chords for acoustic guitar and electric guitar, ukulele, drums are parodies/interpretations of the original songs. You may use it for private study, scholarship, research or language learning purposes only