Home » E » Eagles »

Eagles - Take It Easy Bass

Artists:  A B C D E F G H I J K L M N O P Q R S T U V W X Y Z # 

Take It Easy Bass

(ver. 1) Click to play this song!
Eagles
 Rating:
4.4/5 (8 votes)
                  [Intro]
  Q=139
  4/4
  Gtr I
   W          W          H    E  E  E  E    +W
G|----------|----------|--------12-12-12-|-(12)----|
D|----------|----------|-----------------|---------|
A|----------|----------|-----------------|---------|
E|----------|----------|-----------------|---------|


    +Q   Q  Q  E E   +H     +E  E E E   +H     +E  E E E   +H     +E  E E   E
G|-(12)------------|------------------|------------------|----------------/12-|
D|---------------5-|-(5)----(5)-5-5-5-|-(5)----(5)-5-5-5-|-(5)----(5)-5-5-----|
A|-----------------|------------------|------------------|--------------------|
E|-----------------|------------------|------------------|--------------------|


                                                      [1st Verse]
    +H      +Q.   E   Q  E E Q  E E   Q  E E Q  E E    Q  E E Q  E E
G|-(12)----(12)-----|---------------|---------------||---------------|
D|----------------0-|-5----5-5----5-|-5----5-5----0-||-5----5-5----5-|
A|------------------|---------------|---------------||---------------|
E|------------------|---------------|---------------||---------------|


   Q  E E Q  E E   Q.   E Q.   E   Q  E E Q  E E   Q  E E E E E e
G|---------------|---------------|---------------|----------------|
D|-5----5-5----0-|-5-------------|---------------|----------------|
A|---------------|------5-5----0-|-3----3-3------|--------2-5---2-|
E|---------------|---------------|-------------0-|-3----3---------|


                                                  [Chorus]
   Q  E E Q  E E   Q  E E Q  Q    Q  E E Q  E E    Q  E E Q  Q
G|---------------|--------------|---------------||--------------|
D|---------------|--------------|---------------||--------------|
A|-5----5-5----2-|-3----3-3-----|-------------0-||-7----7-7-----|
E|---------------|--------------|-3----3-3------||--------------|


   Q  E E Q  E E   Q  E E E E E E   Q  E E Q  E E   Q  E E Q  Q
G|---------------|----------------|---------------|--------------|
D|---------------|--------2-5-----|---------------|--------------|
A|-7----7-7----0-|-3----3-------5-|---------------|--------------|
E|---------------|----------------|-3----3-3----0-|-5----5-5-----|


   Q  E E Q  E E   Q  E E Q  E E   Q.   E E E E E    Q.   E E E E E
G|---------------|---------------|-----------------|----------------|
D|---------------|---------------|-----------------|----------------|
A|-3----3-3----0-|-7----7-7----0-|-7----7-7-7---7\-|-3----3-3-3-----|
E|---------------|---------------|-----------------|--------------0-|


   Q.   E E E E E   Q  E E E E E E   Q.   E E E E E   Q  E E Q  E E
G|----------------|----------------|----------------|---------------|
D|----------------|--------2-5-----|----------------|---------------|
A|--------2-5---2-|-3----3-------5-|--------2-5---2-|-------------0-|
E|-3----3---------|----------------|-3----3---------|-5----5-5------|


   Q  E E Q  E E   Q  E E Q  E E   Q  E E E E e E   Q  E E Q  E E
G|---------------|---------------|----------------|---------------|
D|-------------0-|-5----5-5----0-|-5----5-5---3---|-5----5-5----0-|
A|-3----3-3------|---------------|----------5---5-|---------------|
E|---------------|---------------|----------------|---------------|


                    [2nd Verse]
   Q  E E E E e E    Q.   E Q  E E   Q  E E Q.   E   Q.   E Q.   E
G|----------------||---------------|---------------|---------------|
D|-5----5-5---3---||-5----5-5----0-|-5----5-5----0-|-5-------------|
A|----------5---5-||---------------|---------------|------0-5----0-|
E|----------------||---------------|---------------|---------------|


   Q.   E E E E E   Q.   E E E E E   Q.   E E E E E   Q  E E E E E E
G|----------------|----------------|----------------|----------------|
D|--------2-5-----|----------------|--------4-7-----|--------2-5-----|
A|-3----3-------5-|--------2-5---0-|-5----5-------0-|-3----3-------5-|
E|----------------|-3----3---------|----------------|----------------|


                   [Chorus]
   Q  E E Q  E E    Q  E E Q  E E   Q  E E Q  Q    Q  E E Q  Q
G|---------------||---------------|--------------|--------------|
D|---------------||---------------|--------------|--------------|
A|-------------0-||-7----7-7----0-|-5----5-5-----|-3----3-3-----|
E|-3----3-3------||---------------|--------------|--------------|


   Q.   E E E E E   Q.   E Q.   E   Q.   E Q.   E   Q.   E Q.   E
G|----------------|---------------|---------------|---------------|
D|----------------|---------------|---------------|---------------|
A|--------2-5---2-|-------------0-|-3----3-3----0-|-7----7-7------|
E|-3----3---------|-5----5-5------|---------------|---------------|


   Q.   E Q  E E   Q  E E E E E E   Q.   E E E E E   Q  E E E E E E
G|---------------|----------------|----------------|----------------|
D|---------------|--------2-5-----|----------------|--------2-5-----|
A|-7----7-7----0-|-3----3-------5-|--------2-5---2-|-3----3-------5-|
E|---------------|----------------|-3----3---------|----------------|


   Q.   E E E E E   Q.   E Q  E E   Q.   E Q.   E   Q.   E Q  E E
G|----------------|---------------|---------------|---------------|
D|----------------|---------------|-------------0-|-5----5-5----0-|
A|--------2-5---2-|-------------0-|-3----3-3------|---------------|
E|-3----3---------|-5----5-5------|---------------|---------------|


                   [Guitar Solo]
   Q.   E E E Q     Q.   E Q  E E   Q.   E Q.   E   Q.   E Q.   E
G|---------------||---------------|---------------|---------------|
D|-5----5-5------||-5----5-5----0-|-5----5-5----0-|-5-------------|
A|----------5----||---------------|---------------|------0-5----0-|
E|---------------||---------------|---------------|---------------|


   Q  E E Q  E E   Q  E E E E E E   Q  E E E E E E   Q  E E E E E E
G|---------------|----------------|----------------|----------------|
D|---------------|----------------|--------4-7-----|--------2-5-----|
A|-3----3-3------|--------2-5---2-|-5----5-------0-|-3----3-------5-|
E|-------------0-|-3----3---------|----------------|----------------|


   Q  E E E E E E   Q  E E Q  E E   Q  E E Q  E E   Q  E E E E E E
G|----------------|---------------|---------------|----------------|
D|----------------|---------------|---------------|--------2-5-----|
A|--------2-5-5-0-|-7----7-7----0-|-5----5-5----0-|-3----3-------5-|
E|-3----3---------|---------------|---------------|----------------|


   Q  E E E E E E   Q.   E Q.   E   Q.   E Q.   E   Q.   E Q.   E
G|----------------|---------------|---------------|---------------|
D|----------------|---------------|---------------|---------------|
A|--------2-5-2---|-------------0-|-3----3-3----0-|-7----7-7----0-|
E|-3----3-------3-|-5----5-5------|---------------|---------------|


                   [3rd Verse]
   Q.   E E E Q     Q.   E Q  E E   Q  E E Q.   E   Q.   E Q.   E
G|---------------||---------------|---------------|---------------|
D|---------------||-5----5-5----0-|-5----5-5----0-|-5-------------|
A|-7----5---5----||---------------|---------------|------0-5------|
E|---------------||---------------|---------------|---------------|


   Q  E E Q  E E   Q  E E Q  E E   Q  E E Q  E E   Q  E E E E E E
G|---------------|---------------|---------------|----------------|
D|---------------|---------------|---------------|--------2-5-----|
A|---------------|-------------0-|-5----5-5----0-|-3----3-------5-|
E|-5----5-5----0-|-3----3-3------|---------------|----------------|


                  [Chorus]
   Q  E E Q  Q     Q  E E Q  E E   Q  E E Q.   E   Q  E E Q  Q
G|--------------||---------------|---------------|--------------|
D|--------------||---------------|---------------|--------------|
A|--------------||-7----7-7----0-|-7----7-7------|-3----3-3-----|
E|-3----3-3-----||---------------|---------------|--------------|


   Q  E E E E E E   Q.   E Q.   E   Q.   E Q.   E   Q  E E Q  Q
G|----------------|---------------|---------------|--------------|
D|----------------|---------------|---------------|--------------|
A|--------2-5---2-|-------------0-|-3----3-3----0-|-7----7-7-----|
E|-3----3---------|-5----5-5------|---------------|--------------|


   Q  E E Q.   E   +Q.   E E E E E   Q.   E e e e E   +Q.   E E E E E
G|---------------|-----------------|----------------|-----------------|
D|---------------|---------2-5-----|----------------|---------2-5-----|
A|-7----7-7----3-|-(3)---3-------5-|--------2-5-2-3-|-(3)---3-------5-|
E|---------------|-----------------|-3----3---------|-----------------|


   Q  E E E E E E   Q.   E Q.   E   Q.   E Q.   E   +W
G|----------------|---------------|---------------|--------|
D|----------------|---------------|-------------5-|-(5)----|
A|--------2-5---2-|-------------0-|-3----3-3------|--------|
E|-3----3---------|-5----5-5------|---------------|--------|


                 [Outro]
   +H.      Q     Q  E E Q  Q    Q  E E E E E E   Q.   E Q.   E
G|-------------||--------------|----------------|---------------|
D|-(5)---------||--------------|----------------|---------------|
A|-------------||-3----3-3-----|-3----3-3-------|---------------|
E|-------------||--------------|----------0-1-2-|-3----3-3------|


   Q  E E E E E E   Q.   E Q  Q    Q.   E E E E E   Q.   E Q.   E
G|----------------|--------------|----------------|---------------|
D|----------------|--------------|----------------|---------------|
A|----------------|-3----3-3-----|-3----3-3-------|---------------|
E|-3----3---3---3-|--------------|----------0-1-2-|-3----3-3------|


   Q.   E E E E E     Q.   E Q.   E   E Q  E +E  E E E   Q.   E Q.   E
G|----------------||----------------|------------------|---------------|
D|----------------||o---------------|------------------|---------------|
A|----------0-1-2-||o-3----3-3----3-|------------------|---------------|
E|-3----3-3-------||----------------|-0-0--1-(1)-1-2-2-|-3----3-3----3-|


   Q.   E E E E E     Q.   E Q  E E   Q.   E E E Q    W          +W
G|-----------------||---------------|---------------|----------|--------*|
D|----------------o||---------------|---------------|----------|--------*|
A|----------0-1-2-o||-3----3-3----3-|-3----3-3---3S=|=7--------|-(7)----*|
E|-3----3-3--------||---------------|---------------|----------|--------*|

            
Submit corrections

↑ Back to top | Tablatures and chords for acoustic guitar and electric guitar, ukulele, drums are parodies/interpretations of the original songs. You may use it for private study, scholarship, research or language learning purposes only