» » »

Eagle Eye Cherry - Long Way Around Tabs

Artists:  A B C D E F G H I J K L M N O P Q R S T U V W X Y Z # 

Long Way Around Tabs

(ver. 1) Click to play this song!
Eagle Eye Cherry
 Rating:
4/5 (4 votes)

 Long Way Around lessons Tabs too difficult? Try these video lessons and learn fast
 
                Eagle Eye Cherry
CAPO ON 4TH FRET

Here's the basic chords - they're repeated throughout the song.

    D     D2    C     G     Em                                                
E---2--|--3--|-----|--3--|-----|----------------------------------------
B---3--|--3--|--1--|--0--|-----|----------------------------------------
G---2--|--2--|--0--|--0--|--1--|----------------------------------------
D---0--|--0--|--2--|--0--|--2--|----------------------------------------
A------|-----|--3--|--2--|--2--|----------------------------------------
E------|-----|-----|--3--|-----|----------------------------------------
                                                                        

If you want you can play the intro like this:
                                                                        
E---2--3--2-----------------------|-------------------------------------
B---3--3--3-----------------------|-------------------------------------
G---2--2--2--------0-----------0--|-------------------------------------
D---0--0--0-----2-----------0-----|-------------------------------------
A------------3-----------2--------|-------------------------------------
E---------------------3-----------|-------------------------------------
                                                                        

But you don't have to.


Strumming pattern:
VERSE/CHORUS
D D2 D C G x3
Em C G

And that's it!
            
Submit corrections


        Long Way Around lessons Hard to play? Try these video lessons and learn fast Long Way Around lessons
        
↑ Back to top | Tablatures and chords for acoustic guitar and electric guitar, ukulele, drums are parodies/interpretations of the original songs. You may use it for private study, scholarship, research or language learning purposes only