Home » D » Duncan Dhu »

Duncan Dhu - A Un Minuto De Ti Bass

Artists:  A B C D E F G H I J K L M N O P Q R S T U V W X Y Z # 

A Un Minuto De Ti Bass

(ver. 1) Click to play this song!
Duncan Dhu
----------------------------------------------------------------------------
			     A UN MINUTO DE TI - Mikel Erentxun
----------------------------------------------------------------------------


Tuning: Standard G

  Intro:      1)
G|---77------|/97----------------------------------------------------------|
D|-5------5-5|------1010------10h129h10------------109h109-----------------|
A|------5----|----8--------8-8---------12----10--12------------------------|
E|-----------|-----------8---------------1212--12--------------------------|

G|-------------------------|/97--------------------------------------------|
D|-5------5------5------5-5|------1010------10h129h10------------109h109---|
A|---55-5---55-5---55-5----|----8--------8-8---------12----10--12----------|
E|-------------------------|-----------8---------------1212--12------------|

                  Antes de tres lunas....
                              2)        
G|-------------------------------------------------------------------------|
D|-5------5------5------5---5-3------3----57------7----7-------------------|
A|---55-5---55-5---55-5---55----33-3---33----77-7---77---------------------|
E|-------------------------------------------------------------------------|

G|-------------------------------------------------------------------------|
D|-5------5------5------5---5-3------3----57------7----7-------------------|
A|---55-5---55-5---55-5---55----33-3---33----77-7---77---------------------|
E|-------------------------------------------------------------------------|

            A un minuto de ti......
            3) 
G|-------------------------------------------------------------------------|
D|-5------5---5-3-320-------5----5-------3----3--------5------5------------|
A|---55-5---55-------3--------55--7----7---33---3----3---55-5---55-5-------|
E|---------------------33-3---------77------------33-----------------------|

            El viento se ha acabado....y Solamente te di.... 
            Estas partes son iguales que el 2)y 3)
G|-------------------------------------------------------------------------|
D|-5------5---5-3----------------------------------------------------------|
A|---55-5---55-------------------------------------------------------------|
E|-------------------------------------------------------------------------|

  4)Llegaré.......            Nada más....   
G|-------------------------------------------------------------------------|
D|-5---5--------7----7--------5---5--------7----7--------------------------|
A|---55--5-55-5---77---3-33-3---55--5-55-5---77---3-33-3-------------------|
E|-------------------------------------------------------------------------|

  Me atreveré...             Nada más...         No soy como tu...
G|-------------------------------------------------------------------------|
D|-5---5--------7----7--------5---5--------7----7--------------------------|
A|---55--5-55-5---77---3-33-3---55--5-55-5---77---3-33-3-3-33-3------------|
E|-------------------------------------------------------------------------|

  Solo Guitarra: Aquí sigue igual que el 1)
G|-------------------------------------------------------------------------|
D|-5------5-5--------------------------------------------------------------|
A|---55-5------------------------------------------------------------------|
E|-------------------------------------------------------------------------|

  A un minuto de ti...
G|-------------------------------------------------------------------------|
D|-3-------5-------3-------5-----------------------------------------------|
A|-----3-------7-------3---------------------------------------------------|
E|-------------------------------------------------------------------------|

  Voy a ver......
  Esta parte es igual que 4)y luego termina en G:
G|-------------------------------------------------------------------------|
D|-----------------------------------------------5-------------------------|
A|-------------------------------------------------------------------------|
E|-------------------------------------------------------------------------|


| /  slide up
| \  slide down
| h  hammer-on
| p  pull-off
| ~  vibrato
| +  harmonic
| x  Mute note
============================================================================
            
Submit corrections

↑ Back to top | Tablatures and chords for acoustic guitar and electric guitar, ukulele, drums are parodies/interpretations of the original songs. You may use it for private study, scholarship, research or language learning purposes only