» » »

Dubliners - Danny Boy Tabs

Artists:  A B C D E F G H I J K L M N O P Q R S T U V W X Y Z # 

Danny Boy Tabs

(ver. 1) Click to play this song!
Dubliners
 Rating:
4.3/5 (27 votes)

 Danny Boy lessons Tabs too difficult? Try these video lessons and learn fast
 
                [Intro]
e|------------------------------------5----3---------------------------------|
B|----------3----5--------3----5---------------------5-----3-----------------|
G|--4---5--------------------------------------------------------5-2---------|
D|---------------------------------------------------------------------------|
A|---------------------------------------------------------------------------|
E|---------------------------------------------------------------------------|
    O   Dan-ny   bo-y     the  pipes  the  pipes    are   call--ing

e|-------------------------------5-----3-------------------------------------|
B|----------------3-------5------------------5------3------------3-----------|
G|--4------5---------------------------------------------5-------------------|
D|---------------------------------------------------------------------------|
A|---------------------------------------------------------------------------|
E|---------------------------------------------------------------------------|
    from   Glen   to      Glen   and   down  the    moun-tain    side     

e|----------------------------------5----3-----------------------------------|
B|----------------5---------3---5------------5-------3-----------------------|
G|--4---5---2----------------------------------------------5--2--------------|
D|---------------------------------------------------------------------------|
A|---------------------------------------------------------------------------|
E|---------------------------------------------------------------------------|
    The sum-mer's Gone,     and all the  ros-es     fall  - ing,
 
e|---------------------------------------------------------------------------|
B|------------------3-----5------6----5--------3------3----------------------|
G|--4-----5----------------------------------------5------5------------------|
D|---------------------------------------------------------------------------|
A|---------------------------------------------------------------------------|
E|---------------------------------------------------------------------------|
    tis  you,      tis  You    must go,      and I  must bide,

e|-3---5----7---8----------7----7---5-----3--5-------------------------------|
B|---------------------------------------------------5-----------------------|
G|--------------------------------------------------------5------------------|
D|---------------------------------------------------------------------------|
A|---------------------------------------------------------------------------|
E|---------------------------------------------------------------------------|
   But come ye back       when sum-mer's in the     Mea - dow,

e|--3----5----7------8-----7-------7------5---3------------------------------|
B|----------------------------------------------------5-----3----------------|
G|---------------------------------------------------------------------------|
D|---------------------------------------------------------------------------|
A|---------------------------------------------------------------------------|
E|---------------------------------------------------------------------------|
    Or when the      val - ley's   hushed and white    with   Snow

e|-3------3-------3-----12----10---10----8------5---8-----5----3-------------|
B|---------------------------------------------------------------------------|
G|---------------------------------------------------------------------------|
D|---------------------------------------------------------------------------|
A|---------------------------------------------------------------------------|
E|---------------------------------------------------------------------------|
   Tis   I'll    be    here  in   sun - shine  or  in    sha - dow.

e|-------------------------5--3----------------------------------------------|
B|-----------3-----5--------------5--3---------------------------------------|
G|-4----5----------------------------------5---2-----4-----5-----------------|
D|---------------------------------------------------------------------------|
A|---------------------------------------------------------------------------|
E|---------------------------------------------------------------------------|
   Oh,   Dan-ny     Boy,   oh Dan-ny Boy,  I   Love   you   So

e|-3---------------3---12---10---10---8---7---5---3------------------------|-|
B|---------3---5--------------------------------------5---3-------3----------|
G|-----5------------------------------------------------------5--------------|
D|---------------------------------------------------------------------------|
A|---------------------------------------------------------------------------|
E|---------------------------------------------------------------------------|


e|-----------------------------------5---3-----------------------------------|
B|------------3---5----------3---5------------5-----3------------------------|
G|-4----5------------------------------------------------5-2-----------------|
D|---------------------------------------------------------------------------|
A|---------------------------------------------------------------------------|
E|---------------------------------------------------------------------------|
   But  when  you  come       and all the flowers     dy--ing

e|---------------3---------5----3--------------------------------------------|
B|------3---5------------------------------5----------5----3-----------------|
G|-5--------------------------------------------5----------------------------|
D|---------------------------------------------------------------------------|
A|---------------------------------------------------------------------------|
E|---------------------------------------------------------------------------|
   If   I   am   dead,     as   dead       I    well  may  be

e|-------------------------------------5------3------------------------------|
B|--------------3----5-----3----5-----------------5---3----------------------|
G|-4------5-----------------------------------------------5--2---------------|
D|---------------------------------------------------------------------------|
A|---------------------------------------------------------------------------|
E|---------------------------------------------------------------------------|
   youll  come  and  find  the  place  where  I   am  ly--ing

e|---------------------------------------------------------------------------|
B|----------------3----5----3---5------------3-------------------------------|
G|-4----5--------------------------5--------------5--------------------------|
D|---------------------------------------------------------------------------|
A|---------------------------------------------------------------------------|
E|---------------------------------------------------------------------------|
   And  kneel     and  say  an  a-ve  there  for  me

e|-3----5----7-----8--------7----7----5---3-----5--3-------------------------|
B|-----------------------------------------------------5---------------------|
G|-------------------------------------------------------5-------------------|
D|---------------------------------------------------------------------------|
A|---------------------------------------------------------------------------|
E|---------------------------------------------------------------------------|
   And  I    shall hear,    tho' soft you tread above  me

e|-3----5----7----8------7-----7---------5----3------------------------------|
B|-------------------------------------------------5--3----------------------|
G|---------------------------------------------------------------------------|
D|---------------------------------------------------------------------------|
A|---------------------------------------------------------------------------|
E|---------------------------------------------------------------------------|
   And  all  my   grave  will  warm-er,  sweet-er  be

e|--3----3----3----12-----10----10-----8-----5-----8------3------------------|
B|-------------------------------------------------------------5-------------|
G|-----------------------------------------------------------------5---------|
D|---------------------------------------------------------------------------|
A|---------------------------------------------------------------------------|
E|---------------------------------------------------------------------------|
   and   you  will bend   and   tell   me    that  you      love   me

e|------------------------5----3---------------------------------------------|
B|-------------3----5----------------5----3----------------------------------|
G|-4----5----------------------------------------5-----2-----4-5-------------|
D|---------------------------------------------------------------------------|
A|---------------------------------------------------------------------------|
E|---------------------------------------------------------------------------|
   And  I      will sleep in   peace until you   come   to    me            
Submit corrections


        Danny Boy lessons Hard to play? Try these video lessons and learn fast Danny Boy lessons
        
↑ Back to top | Tablatures and chords for acoustic guitar and electric guitar, ukulele, drums are parodies/interpretations of the original songs. You may use it for private study, scholarship, research or language learning purposes only