» » »

Drowning Pool - Tearing Away With Tabs

Artists:  A B C D E F G H I J K L M N O P Q R S T U V W X Y Z # 

Tearing Away With Tabs

(ver. 1) Click to play this song!
Drowning Pool
 Rating:
4/5 (4 votes)


 Tearing Away With lessons Tabs too difficult? Try these video lessons and learn fast
 
                
I tabbed this a long time ago and I failed to note the tuning so I
hope this is right. If not it might also be EBADAD.

Riff 1: Intro
e|----------------------------------------------------------------------
b|-11--11-11-11---11-10-------------------------------------------------
g|-11--11-11-11---11-10-------------------------------------------------
d|-11--11-11-11---11-10---0--2--0---0-0-0-0-----------------------------
a|-11--11-11-11---11-10---0--2--0---0-0-0-0-----------------------------
d|-11--11-11-11---11-10---0--2--0---0-0-0-0-----------------------------
                        x  x  x   x x x x

Riff 2: Intro Pt2
e|----------------------------------------------------------------------
b|----------------------------------------------------------------------
g|-11-11-11-11-11-9-8-8-8-8-4-4-2-2-2-----------------------------------
d|-11-11-11-11-11-9-8-8-8-8-4-4-2-2-2-----------------------------------
a|-11-11-11-11-11-9-8-8-8-8-4-4-2-2-2-----------------------------------
d|-11-11-11-11-11-9-8-8-8-8-4-4-2-2-2-----------------------------------

Riff 3: Chorus
e|----------------------------------------------------------------------
b|----------------------------------------------------------------------
g|-8--8--8-8-9-9-9-6-6-6-8--8--8-8-5-5--5-5-6--5-5--5-6-----------------
d|-8--8--8-8-9-9-9-6-6-6-8--8--8-8-5-5--5-5-6--5-5--5-6-----------------
a|-8--8--8-8-9-9-9-6-6-6-8--8--8-8-5-5--5-5-6--5-5--5-6-----------------
d|-8--8--8-8-9-9-9-6-6-6-8--8--8-8-5-5--5-5-6--5-5--5-6-----------------

Riff : Solo
e|-----16r--14r--17r--16--16h17p16---12---11---9---7---10--109-9------
b|----------------------------------------------------------------------
g|-1/16-----------------------------------------------------------------
d|----------------------------------------------------------------------
a|----------------------------------------------------------------------
d|----------------------------------------------------------------------

e|-18h19p18--18h19p18--18h19p18-18-18-18--16-16h17-14-147-7h9p7-7-7-7--
b|----------------------------------------------------------------------
g|----------------------------------------------------------------------
d|----------------------------------------------------------------------
a|----------------------------------------------------------------------
d|----------------------------------------------------------------------

e|-7/4-4-4-4-4/7-
b|---------------
g|---------------
d|---------------
a|---------------
d|---------------
            
Submit corrections



        Tearing Away With lessons Hard to play? Try these video lessons and learn fast Tearing Away With lessons
        
↑ Back to top | Tablatures and chords for acoustic guitar and electric guitar, ukulele, drums are parodies/interpretations of the original songs. You may use it for private study, scholarship, research or language learning purposes only