» » »

Drowning Pool - Full Circle Tabs

Artists:  A B C D E F G H I J K L M N O P Q R S T U V W X Y Z # 

Full Circle Tabs

(ver. 1) Click to play this song!
Drowning Pool
 Rating:
3.8/5 (5 votes)


 Full Circle lessons Tabs too difficult? Try these video lessons and learn fast
 
                Drowning Pool may play this in drop B or something but here's how to play it without 
your guitar strings as loose as a whore on Labor Day weekend (standard tuning).

Oh and by the way, the numbers that look all mashed up are actually double digit frets 
11, 11, 11).

.=PM
// or \\=slide

INTRO

|----------------|----------------|----------------|----------------|
|----------------|----------------|----------------|----------------|
|----------------|----------------|----------------|----------------|
|6-6-------------|9-9-------------|6-6-------------|9-9-------------|
|4-4-------------|7-7-------------|4-4-------------|7-7-------------|
|----------------|----------------|----------------|----------------|

|----------------|----------------|----------------|----------------|
|----------------|----------------|----------------|----------------|
|----------------|----------------|----------------|----------------|
|6-6-------------|9-9-------------|6-6-------------|9-9-------4---4-|
|4-4-------------|7-7-------------|4-4-------------|7-7-------2---2-|
|----------------|----------------|----------------|----------------|

VERSE

|----------------|----------------|----------------|----------------|
|----------------|----------------|----------------|----------------|
|----------------|----------------|----------------|----------------|
|6-6-6-6-6-6-6-6-|9-9-9-9-9-4-x-4-|6-6-6-6-6-6-6-6-|9-9-9-9-9-9-4-4-|
|4-4-4-4-4-4-4-4-|7-7-7-7-7-2-x-2-|4-4-4-4-4-4-4-4-|7-7-7-7-7-7-2-2-|
|----------------|----------------|----------------|----------------|
     . . . . . .      . . .            . . . . . .

PRECHORUS

|----------------|----------------|----------------|----------------|
|----------------|----------------|----------------|----------------|
|6-6-6-8-8-8-9-9-|1111111414141313|1313131313131313|1414141313131111|
|x-x-x-x-x-x-x-x-|x-x-x-x-x-x-x-x-|x-x-x-x-x-x-x-x-|x-x-x-x-x-x-x-x-|
|4-4-4-6-6-6-7-7-|9-9-9-1212121111|1111111111111111|1212121111119-9-|
|----------------|----------------|----------------|----------------|

|----------------|----------------|
|----------------|----------------|
|6-6-6-8-8-8-9-9-|1111111414141313|
|x-x-x-x-x-x-x-x-|x-x-x-x-x-x-x-x-|
|4-4-4-6-6-6-7-7-|9-9-9-1212121111|
|----------------|----------------|

CHORUS

|----------------|----------------|----------------|----------------|
|----------------|----------------|----------------|----------------|
|4-6-4-6-4-6-----|4-6-4-6-4-7-----|4-6-4-6-4-6-----|4-6-4-6-4-7-----|
|4-6-4-6-4-6-----|4-6-4-6-4-7-----|4-6-4-6-4-6-----|4-6-4-6-4-7-----|
|2-4-2-4-2-4-----|2-4-2-4-2-5-----|2-4-2-4-2-4-----|2-4-2-4-2-5-----|
|----------------|----------------|----------------|----------------|
 //  //  //       //\\  \\         //  //  //       //\\  \\

|----------------|----------------|
|----------------|----------------|
|9-9-9-1616161414|6-7-7-1414141313|
|x-x-x-x-x-x-x-x-|x-x-x-x-x-x-x-x-|
|7-7-7-1414141212|4-5-5-1212121111|
|----------------|----------------|
                  //

|----------------|----------------|----------------|----------------|
|----------------|----------------|----------------|----------------|
|4-6-4-6-4-6-----|4-6-4-6-4-7-----|4-6-4-6-4-6-----|4-6-4-6-4-7-----|
|4-6-4-6-4-6-----|4-6-4-6-4-7-----|4-6-4-6-4-6-----|4-6-4-6-4-7-----|
|2-4-2-4-2-4-----|2-4-2-4-2-5-----|2-4-2-4-2-4-----|2-4-2-4-2-5-----|
|----------------|----------------|----------------|----------------|
 //  //  //       //\\  \\         //  //  //       //\\  \\

BREAK

|----------------|----------------|----------------|----------------|
|----------------|----------------|----------------|----------------|
|----------------|----------------|----------------|----------------|
|6-6-------------|9-9-------------|6-6-------------|9-9-------4---4-|
|4-4-------------|7-7-------------|4-4-------------|7-7-------2---2-|
|----------------|----------------|----------------|----------------|

VERSE

PRECHORUS

CHORUS (slight variation)

|----------------|----------------|----------------|----------------|
|----------------|----------------|----------------|----------------|
|4-6-4-6-4-6-----|4-6-4-6-4-7-----|4-6-4-6-4-6-----|4-6-4-6-4-7-----|
|4-6-4-6-4-6-----|4-6-4-6-4-7-----|4-6-4-6-4-6-----|4-6-4-6-4-7-----|
|2-4-2-4-2-4-----|2-4-2-4-2-5-----|2-4-2-4-2-4-----|2-4-2-4-2-5-----|
|----------------|----------------|----------------|----------------|
 //  //  //       //\\  \\         //  //  //       //\\  \\

|----------------|----------------|
|----------------|----------------|
|9-9-9-1616161414|6-7-7-1414141313|
|x-x-x-x-x-x-x-x-|x-x-x-x-x-x-x-x-|
|7-7-7-1414141212|4-5-5-1212121111|
|----------------|----------------|
                  //

|----------------|----------------|----------------|----------------|
|----------------|----------------|----------------|----------------|
|4-6-4-6-4-6-----|4-6-4-6-4-7-----|4-6-4-6-4-6-----|9-------4-------|
|4-6-4-6-4-6-----|4-6-4-6-4-7-----|4-6-4-6-4-6-----|9-------4-------|
|2-4-2-4-2-4-----|2-4-2-4-2-5-----|2-4-2-4-2-4-----|7-------2-------|
|----------------|----------------|----------------|----------------|
 //  //  //       //\\  \\         //  //  //

BREAKDOWN

|----------------|----------------|----------------|----------------|
|----------------|----------------|----------------|----------------|
|6---------------|9---------4---4-|6---------------|9---------4---4-|
|6---------------|9---------4---4-|6---------------|9---------4---4-|
|4---------------|7---------2---2-|4---------------|7---------2---2-|
|----------------|----------------|----------------|----------------|

|----------------|----------------|----------------|----------------|
|----------------|----------------|----------------|----------------|
|6---------------|9---------4---4-|6---------------|9---------------|
|6---------------|9---------4---4-|6---------------|9---------------|
|4---------------|7---------2---2-|4---------------|7---------------|
|----------------|----------------|----------------|----------------|

SOLO (use tremolo effects and such. the "harmony" in the background the second time is 
this playing over again at a different time with wierd effects)

x2

|----------------|----------------|----------------|----------------|
|21----17----19--|----------------|----------------|----------------|
|----------------|--16----18------|----------------|----------------|
|-----------------------------18--|16----18----13--|--141311--------|
|----------------|----------------|----------------|----------------|
|----------------|----------------|----------------|----------------|
                                                    //\\

PRECHORUS

CHORUS

OUTRO

|----------------|----------------|----------------|----------------|
|----------------|----------------|----------------|----------------|
|4-6-4-6-4-6-----|4-6-4-6-4-7-----|4-6-4-6-4-6-----|4-6-4-6-4-7-----|
|4-6-4-6-4-6-----|4-6-4-6-4-7-----|4-6-4-6-4-6-----|4-6-4-6-4-7-----|
|2-4-2-4-2-4-----|2-4-2-4-2-5-----|2-4-2-4-2-4-----|2-4-2-4-2-5-----|
|----------------|----------------|----------------|----------------|
 //  //  //       //\\  \\         //  //  //       //\\  \\

|----------------|----------------|----------------|----------------|
|----------------|----------------|----------------|----------------|
|4-6-4-6-4-6-6---|4-6-4-6-4-7-7---|4-6-4-6-4-6-6---|4-6-4-6-4-7-7---|
|x-x-x-x-x-x-x---|x-x-x-x-x-x-x---|x-x-x-x-x-x-x---|x-x-x-x-x-x-x---|
|2-4-2-4-2-4-4---|2-4-2-4-2-5-5---|2-4-2-4-2-4-4---|2-4-2-4-2-5-5---|
|----------------|----------------|----------------|----------------|
 //  //  //       //  //  //       //  //  //       //  //  //

|----------------|----------------|----------------|----------------|
|----------------|----------------|----------------|----------------|
|4-6-4-6-4-6-6---|4-6-4-6-4-7-7---|4-6-4-6-9-6-6---|4-6-4-6-4-7-7---|
|x-x-x-x-x-x-x---|x-x-x-x-x-x-x---|x-x-x-x-x-x-x---|x-x-x-x-x-x-x---|
|2-4-2-4-2-4-4---|2-4-2-4-2-5-5---|2-4-2-4-7-4-4---|2-4-2-4-2-5-5---|
|----------------|----------------|----------------|----------------|
 //  //  //       //  //  //       //  //  \\       //  //  //

|----------------|----------------|----------------|----------------|
|----------------|----------------|----------------|----------------|
|4-6-4-6-4-6-x-x-|4-6-4-6-4-7-----|4-6-4-6-4-6-x-x-|4-6-4-6-4-7-----|
|4-6-4-6-4-6-x-x-|4-6-4-6-4-7-----|4-6-4-6-4-6-x-x-|4-6-4-6-4-7-----|
|2-4-2-4-2-4-x-x-|2-4-2-4-2-5-----|2-4-2-4-2-4-x-x-|2-4-2-4-2-5-----|
|----------------|----------------|----------------|----------------|
 //  //  //       //  //  //       //  //  //       //  //  //

|----------------|----------------|----------------|----------------|
|----------------|----------------|----------------|----------------|
|4-6-4-6-4-6-x-x-|4-6-4-6-4-7-----|4-6-4-6-4-6-x-x-|4-6-4-6-4-7-----|
|4-6-4-6-4-6-x-x-|4-6-4-6-4-7-----|4-6-4-6-4-6-x-x-|4-6-4-6-4-7-----|
|2-4-2-4-2-4-x-x-|2-4-2-4-2-5-----|2-4-2-4-2-4-x-x-|2-4-2-4-2-5-----|
|----------------|----------------|----------------|----------------|
 //  //  //       //  //  //       //  //  //       //  //  //

FIN. Screw with the amp at the end if you really wanna go for that effect.
            
Submit corrections



        Full Circle lessons Hard to play? Try these video lessons and learn fast Full Circle lessons
        
↑ Back to top | Tablatures and chords for acoustic guitar and electric guitar, ukulele, drums are parodies/interpretations of the original songs. You may use it for private study, scholarship, research or language learning purposes only