Home » D » Dr Hook And The Medicine Show »

Dr Hook And The Medicine Show - Last Morning Bass

Artists:  A B C D E F G H I J K L M N O P Q R S T U V W X Y Z # 

Last Morning Bass

(ver. 1) Click to play this song!
Dr Hook And The Medicine Show
(Intro)
p= pull off
s= slide
X= muted pluck
Sorry about untidiness of tab, Ive never done one before. If you've heard the song 
before you might understand what I'm trying to do, so feel free to fix it if you want.


G:-------------------------------------------------------------|
D:-------------------------------------------------------------|
A:16p14-11s9---------------------------------------16p14-11s9--|
E:-----------12-12-12-12-12-7-9-7-12-12-12-12-12-12------------|

G:-------------------------------------------------------------|
D:-------------------------------------------------------------|
A:----------------------------------------------14-------------|
E:-----------12-12-12-12-12-7-9-7-12-12-12-12-12--12-12-12-12--|

G:--------------------------------------------------------------|
D:--------------------------------------------------------------|
A:--14----------------------------------------------------------|
E:12--12-12-12-X-7-9-11-12-12-12-12-7-9-11-12-12-12-12-7-9-11-12|
*Dennis starts singing

G:-------------------------------------------------------------|
D:-------------------------------------------------------------|
A:-------------------------------------------------------------|
E:-12-12-12-12-11-9-7-19-19-19-19-15-17-18-19-19-19-19-15-17-18|

G:-------------------------------------------------------------|
D:-------------------------------------------------------------|
A:-------------------------------------------------------------|

E:19-19-19-19-19-7-9-7-12-12-12-12-7-9-11-12-12-12-12-7-9-11-12|
G:-------------------------------------------------------------|
D:-------------------------------------------------------------|
A:-------------------------------------------------------------|

*Repeat from where Dennis starts singing
            
Submit corrections

↑ Back to top | Tablatures and chords for acoustic guitar and electric guitar, ukulele, drums are parodies/interpretations of the original songs. You may use it for private study, scholarship, research or language learning purposes only