Home » D » Dr Hook »

Dr Hook - Cover Of The Rolling Stone Bass

Artists:  A B C D E F G H I J K L M N O P Q R S T U V W X Y Z # 

Cover Of The Rolling Stone Bass

(ver. 1) Click to play this song!
Dr Hook
[INTRO]
A   A   A   A

[VERSE]
            A                          A
Well we are big rock singers we've got golden fingers
          A                   E
and we're loved everywhere we go
   E                        E
We sing about beauty and we sing about truth
   E7                     A
At ten thousand dollars a show

  A        A        A        E        E        E        E7       A
G:--------|--------|--------|--------|--------|--------|--------|---2--1-|
D:----2---|----2---|----2---|2-------|2-------|2-------|2-------|----24-2|
A:0-------|0-------|0-------|----2---|----2---|----2---|----2---|0-------|
E:--------|--------|--------|--------|--------|--------|--------|--------|

        A                             A
We take all kinds of pills to give us all kinds of thrills
        A                  D
But the thrill we've never known
       E                              E
Is the thrill that'll getcha when you see your picture
       E                     A
On the cover of the 'Rolling Stone'

  A        A        A        D        E        E        E        A
G:2--2----|--------|--------|--------|--------|--------|--------|--------|
D:----2--2|----2--2|--------|0--00---|2---2-2-|2---2-2-|2-------|--------|
A:--------|0--0----|0--02-4-|--------|---2----|---2----|--------|0-------|
E:--------|--------|--------|--------|--------|--------|--0-2-4-|--------|

[CHORUS]
         E
(Rolling Stone)                            (Rolling Stone)
               Wanna see my picture on the cover
         A                                  (Rolling Stone)
               Wanna buy five copies for my mother
         E                                      D                    A
               Wanna see my smiling face on the cover of the Rolling Stone

  E        E        A        A        E        E        D        A
G:--------|------1-|2-------|--------|--------|--------|--------|--------|
D:2-------|2---24--|----2---|------0-|2-------|2---2-1-|0-------|----2---|
A:----2---|--------|--------|0-2-4---|----2---|--------|--------|0-------|
E:--------|--------|--------|--------|--------|--------|--------|--------|

[BRIDGE]
  A        A        A        
G:2-----1-|2-------|2--2----|
D:----24-2|----2---|----42--|
A:--------|--------|------4-|
E:--------|--------|--------|

[VERSE]
           A                      A
I've got a freaky old lady called Cocaine Katy
      A              E
Who embroiders on my jeans
            E                    E
I've got my poor old gray-haired daddy
E7              A
Driving my limousine

  A        A        A        E        E        E        E7       A
G:--------|--------|--------|--------|--------|--------|------1-|2--2----|
D:----2---|----2---|------0-|2--2--0-|2-------|2-------|2---4---|----42--|
A:0-------|0-------|0-2-4---|----24-2|----2---|----2---|---2----|------4-|
E:--------|--------|--------|--------|--------|--------|--------|--------|

         A               A
Now it's all designed to blow our minds
        A                     D
But our minds won't really be blown
         E                            E
Like the blow that'll getcha when you see your picture
       E                    A
On the cover of the Rolling Stone

  A        A        A        D        E        E        E        A
G:--------|--------|--------|--------|--------|--------|--------|--------|
D:----2---|----2---|--------|0---0--0|2--22-2-|2--22-2-|2-------|--------|
A:0-------|0-------|0---2-4-|--------|--------|--------|--------|0-------|
E:--------|--------|--------|--------|--------|--------|--0-2-4-|--------|


[CHORUS]
         E
(Rolling Stone)                            (Rolling Stone)
               Wanna see my picture on the cover
         A                                  (Rolling Stone)
               Wanna buy five copies for my mother
         E                                      D                    A
               Wanna see my smiling face on the cover of the Rolling Stone

  E        E        A        A        E        E        D        A
G:--------|------1-|2-------|--------|--------|--------|--------|--------|
D:2-------|2---24--|----2---|------0-|2-------|2---2-1-|0-------|----2---|
A:----2---|--------|--------|0-2-4---|----2---|--------|--------|0-------|
E:--------|--------|--------|--------|--------|--------|--------|--------|

[BRIDGE]
  A        A        A        A        A        A        A
G:2-----1-|2-------|--------|--------|2-2-----|--------|2-----1-|
D:----24-2|----2---|--------|----2---|----42--|----2---|--2-4---|
A:--------|--------|0-0-----|0-------|------4-|0-------|--------|
E:--------|--------|----024-|--------|--------|--------|--------|


[VERSE]
         A                     A
We got a lot of little teenage blue-eyed groupies
                   E
who do anything we say
         E              E
We got a genuine Indian guru
E7                   A
Teaching us a better way

  A        A        A        E        E        E        E7       A
G:2-------|--------|--------|----9---|--------|--------|------1-|2-2-----|
D:----2---|----2---|------0-|2----964|2-------|------0-|2-2-4---|----42--|
A:--------|0-------|0---4---|--------|----2---|----24--|--------|------4-|
E:--------|--------|--------|--------|--------|0-------|--------|--------|

       A                    A
We got all the friends that money can buy
                       D
So we never have to be alone
            E                     E
And we keep getting richer but we can't get our picture
       E                    A
On the cover of the Rolling Stone

  A        A        A        D        E        E        E        A
G:--------|--------|--------|--------|--------|--------|--------|--------|
D:----2---|----2---|--------|0---0--0|2--22-2-|2--22-2-|2-------|--------|
A:0-------|0-------|0---2-4-|--------|--------|--------|--------|0-------|
E:--------|--------|--------|--------|--------|--------|--0-2-4-|--------|

[CHORUS]
         E
(Rolling Stone)                            (Rolling Stone)
               Wanna see my picture on the cover
         A                                  (Rolling Stone)
               Wanna buy five copies for my mother
         E                                      D                    A
               Wanna see my smiling face on the cover of the Rolling Stone
                      D                    E
               On the cover of the Rolling Stone

  E        E        A        A        E        E        D        A        D
G:--------|------1-|2-------|--------|--------|--------|--------|--------|--------|
D:2-------|2---24--|----2---|------0-|2-------|2---2-1-|0-------|--------|0-------|
A:----2---|--------|--------|0-2-4---|----2---|--------|--------|0-------|--------|
E:--------|--------|--------|--------|--------|--------|--------|--------|--------|


[CHORUS]
         E
(Rolling Stone)                            (Rolling Stone)
               Wanna see my picture on the cover
         A                                  (Rolling Stone)
               Wanna buy five copies for my mother
         E                                      D                    A
               Wanna see my smiling face on the cover of the Rolling Stone

  E        E        A        A        E        E        D        A
G:--------|------1-|2-------|--------|--------|--------|--------|--------|
D:2-------|2---24--|----2---|------0-|2-------|2-------|0-------|--------|
A:----2---|--------|--------|0-2-4---|----2---|----2---|--------|0-------|
E:--------|--------|--------|--------|--------|--------|--------|--------|
            
Submit corrections

↑ Back to top | Tablatures and chords for acoustic guitar and electric guitar, ukulele, drums are parodies/interpretations of the original songs. You may use it for private study, scholarship, research or language learning purposes only