Home » D » Dr Feelgood »

Dr Feelgood - Roxette Bass

Artists:  A B C D E F G H I J K L M N O P Q R S T U V W X Y Z # 

Roxette Bass

(ver. 1) Click to play this song!
Dr Feelgood
Tuning: Standard

Intro:
G|------- ------- ---0---|------- ------- ---0---|------- ------- ---0---|
D|--0-------3------------|--0-------3------------|--0-------3------------|
A|-----------------------|-----------------------|-----------------------|
E|-----------------------|-----------------------|-----------------------|

G|------- ------- ---0---|------- ------- ---0---|------- ------- ---0---|
D|--0-------3------------|--0-------3------------|--0-------3------------|
A|-----------------------|-----------------------|-----------------------|
E|-----------------------|-----------------------|-----------------------|

G|------- ------- ---0---|------- ------- ---0---|------- ------- ---0---|
D|--0-------3------------|--0-------3------------|--0-------3------------|
A|-----------------------|-----------------------|-----------------------|
E|-----------------------|-----------------------|-----------------------|

Verse:


G|------- ------- ---0---|------- ------- ---0---|------- ------- ---0---|
D|--0-------3------------|--0-------3------------|--0-------3------------|
A|-----------------------|-----------------------|-----------------------|
E|-----------------------|-----------------------|-----------------------|

Verse Variation:

G|------ --3----- ---5---|------ --3----- ---5---|------ --3----- ---5---|
D|--5--------------------|--5--------------------|--5--------------------|
A|-----------------------|-----------------------|-----------------------|
E|-----------------------|-----------------------|-----------------------|

G|------ --3----- ---5---|
D|--5--------------------|
A|-----------------------|
E|-----------------------|

Verse:
G|------- ------- ---0---|------- ------- ---0---|------- ------- ---0---|
D|--0-------3------------|--0-------3------------|--0-------3------------|
A|-----------------------|-----------------------|-----------------------|
E|-----------------------|-----------------------|-----------------------|


The Song Is Basically The Same the whole way through so good luck and
have fun! Also Please tell me if there is any corrections
            
Submit corrections

↑ Back to top | Tablatures and chords for acoustic guitar and electric guitar, ukulele, drums are parodies/interpretations of the original songs. You may use it for private study, scholarship, research or language learning purposes only