» » »

Drew Holcomb And The Neighbors - I Like To Be With Me When Im With You Tabs

Artists:  A B C D E F G H I J K L M N O P Q R S T U V W X Y Z # 

I Like To Be With Me When Im With You Tabs

(ver. 1) Click to play this song!
Drew Holcomb And The Neighbors
 Rating:
4/5 (4 votes)

 I Like To Be With Me When Im With You  lessons Tabs too difficult? Try these video lessons and learn fast
 
                
Capo 7

Alright, the intro just holds a G grounding and you fiddle around from C to G


E------3-3--------3-3------3-3-------3-3---3-3-----------|
B------3-3--------3-3------3-3-------3-3---3-3-----------|
G------0-0--------0-0------0-0-------0-0---0-0-----------|
D------0-0--------0-0------0-0-------0-0---0-0-----------|
A----3-3-3----0h2-2-2---0--0-0-------0-0---0h2-----------|
E--------------------------------0h2-2-2---3-3-----------|


Most all subsequent times through he plays this:

E------3-3--------3-3------3-3-------3-3---3-3-----------|
B------3-3--------3-3------3-3-------3-3---3-3-----------|
G------0-0--------0-0------0-0-------0-0---0-0-----------|
D------0-0--------0-0------0-0-------0-0---0-0-----------|
A--2h3-3-3----0h2-2-2---0--0-0-------0-0---0h2-----------|
E--------------------------------0h2-2-2---3-3-----------|
   ^ the only difference


Keep in mind this song is a pretty high tempo, so practice it plenty. Play around with 
the strumming and
hammer-ons to get the right sound you want. Occasionally you should hit the high strings 
a smidgen harder to
produce the ukulele sound in the background. During the verses he just strums G and then 
walks it from C to G
without the hammer-ons.

The beauty of the intro is that it is the majority of the song. He does hit on a D chord 
periodically. It goes
like this:

E--2--0--3--2-------|
B--3--3--3--3-------|
G--2--2--2--2-------|
D--0--0--0--0-------|
A-------------------|
E-------------------|
         ^You can skip this chord if you prefer


!            
Submit corrections


        I Like To Be With Me When Im With You  lessons Hard to play? Try these video lessons and learn fast I Like To Be With Me When Im With You  lessons
        
↑ Back to top | Tablatures and chords for acoustic guitar and electric guitar, ukulele, drums are parodies/interpretations of the original songs. You may use it for private study, scholarship, research or language learning purposes only