» » »

Dredg - Yatahaze Tabs

Artists:  A B C D E F G H I J K L M N O P Q R S T U V W X Y Z # 

Yatahaze Tabs

(ver. 1) Click to play this song!
Dredg
 Rating:
4/5 (4 votes)

 Yatahaze lessons Tabs too difficult? Try these video lessons and learn fast
 
                This is an excellent song from an excellent band. I saw the other tab and I think this one is more like it.


*----*=harmonics

E-----------------------------------------R--------------------------R-4x-
B-----------------------------------------E--------------------------E----
G-10~------10~-------10~--------10~-------P10-10-10-9-9-9-7-7-7-9-9-9P----
D-7~-------7~--------7~---------7~--------E7--7--7--7-7-7-7-7-7-7-7-7E----
A-5~-------5~--------5~---------5~--------A5--5--5--5-5-5-5-5-5-5-5-5A----
E-----5~--------5~--------5~----------5~--T--------------------------T----
4x play this...
E--------------------------------------------------------------
B-----------------------------/6-6-6-6-6-6-6/-8-8-8-8-8-8-8----
G-10-10-10-9-9-9-7-7-7-9-9-9--/7-7-7-7-7-7-7/-9-9-9-9-9-9-9-7~-
D-7--7--7--7-7-7-7-7-7-7-7-7--------------------------------7~-
A-5--5--5--5-5-5-5-5-5-5-5-5--------------------------------5~-
E-----------------------------------------------------------5~-

0:30, where vocals come in, play 3x
E---------------------------------------------------------
B---------------------------------------------------------
G----------------------/10-10--9-9-9-9--7-7-7-7--9-9-9-9--
D-----------------------x--x---x-x-x-x--x-x-x-x--x-x-x-x--
A-8-8-8-8-8-8-8-8-8-8--/8--8---7-7-7-7--5-5-5-5--7-7-7-7--
E-6-6-6-6-6-6-6-6-6-6-------------------------------------
after that's been played 3x, play this once,
E-------------------------
B-------------------------
G----------------------7~-
D----------------------7~-
A-8-8-8-8-8-8-8-8-8-8--5~-
E-6-6-6-6-6-6-6-6-6-6--5~-

then, play this 2x
E----------------------------------------------------------------
B----------------------------------------------------------------
G--------------------------------10-10-9-9-9-9--7-7-7-7--9-9-9-9-
D---------10-10-10-10\8-8-8-8-8--x--x--x-x-x-x--x-x-x-x--x-x-x-x-
A-8-8-8-8-8-8-8-8-8-8-8-8-8-8-8--8--8--7-7-7-7--5-5-5-5--7-7-7-7-
E-6-6-6-6-6-6-6-6-6-6-6-6-6-6-6----------------------------------
the play this
E--------------------------------------------------------------------
B--------------------------------------------------------------------
G---------------7-7-7-7-7-7-7-7--10-10-9-9-9-9--12-12-12-12--9-9-9-9-
D---------10-10-x-x-x-x-x-x-x-x--x--x--x-x-x-x--x--x--x--x---x-x-x-x-
A-8-8-8-8-8-8-8-8-8-8-8-8-8-8-8--8--8--7-7-7-7--10-10-10-10--7-7-7-7-
E-6-6-6-6-6-6-6-6-6-6-6-6-6-6-6--------------------------------------
(continued)
E-----------------------------------
B-----------------------------------
G---------------7-7-7-7-7-7-7-7-----
D---------10-10-x-x-x-x-x-x-x-x--7~-
A-8-8-8-8-8-8-8-8-8-8-8-8-8-8-8--5~-
E-6-6-6-6-6-6-6-6-6-6-6-6-6-6-6--5~-
(1:22)repeat 2x
E-----5-----5~---5~-------------5~-
B-------6---6~---6~-------6-----6~-
G---------7-7----7~---------7---7~-
D---7------------7~-----7-----7----
A-5-------------------5------------
E----------------------------------
1:47,repeat 2x
E--------------------------------------------------------------------
B--------------------------------------------------------------------
G--------------10-11-11-11--10-10-10---------------9-10-10-10--9-9-9-
D-8-8-8-8-8-8--x--x--x--x----x--x--x--7-7-7-7-7-7--x--x--x--x--x-x-x-
A-8-8-8-8-8-8--8/10-10-10----8-8-8-8--5-5-5-5-5-5--7/-8--8--8--7-7-7-
E-6-6-6-6-6-6-------------------------5-5-5-5-5-5--------------------
repeat 2x
E-----------------------------------------------------------------------
B-----------------------------------------------------------------------
G--------------10-11-11-11--14-14-14-14---------------9-10-10-10--9-9-9-
D-8-8-8-8-8-8--x--x--x--x----x--x--x--x--7-7-7-7-7-7--x--x--x--x--x-x-x-
A-8-8-8-8-8-8--8/10-10-10---12-12-12-12--5-5-5-5-5-5--7/-8--8--8--7-7-7-
E-6-6-6-6-6-6----------------------------5-5-5-5-5-5--------------------
repeat once
E---------------------------------------
B---------------------------------------
G--------------10-11-11-11--14-14-14-14-
D-8-8-8-8-8-8--x--x--x--x----x--x--x--x-
A-8-8-8-8-8-8--8/10-10-10---12-12-12-12-
E-6-6-6-6-6-6---------------------------

repeat 2x
E--------------------------------------------------------------------------------------
B--------------------------------------------------------------------------------------
G--------------------------------------------------------------------------------------
D-7-7-7-7-7-*7-7-7-7*-7-7-7-7-7-7-*7-7-7-7*--------------------------------------------
A-5-5-5-5-5-----------5-5-5-5-5-5-----------8-8-8-8-8-8-*7-7-7-7*-8-8-8-8-8-*7-7-7-7*--
E-5-5-5-5-5-----------5-5-5-5-5-5-----------6-6-6-6-6-6-----------6-6-6-6-6------------

play 2x
E-------------------------------
B-------------------------------
G----------------------9-9-9----
D-7-7-7--7-7-7---------x-x-x----
A-5-5-5--0-0-0--8-8-8--7-7-7----
E-5-5-5---------6-6-6-----------

play 2x
E-----------------------------------------
B-----------------------------------------
G-------------------------------9-9-9-9---
D-7-7-7-7--*7-7-7-7*------------x-x-x-x---
A-5-5-5-5---0-0-0-0---8-8-8-8---7-7-7-7---
E-5-5-5-5-------------6-6-6-6-------------

after that'played 4x, play this a whole bunch of times
E----
B----
G----
D-*7*
A----
E----

3:10
E-------------------------------------------------------------------------------------------
B-------------------------------------------------------------------------------------------
G-------------------------------------------------------------------------------------------
D------------7--7-7-7-7------------7--7-7-7-7-----------------------------------------------
A-5--5-5-5-5------------5--5-5-5-5-----------------------7--7-7-7-7--8h7-7-7-7--5h7-7-7h5-5-
E---------------------------------------------6--6-6-6-6------------------------------------
(continued)
E--------------------------------------------------------------------------------------
B--------------------------------------------------------------------------------------
G--------------------------------------------------------------------------------------
D------------7--7-7-7-7--8h7-7-7-7--5h7-7-7--------------------------------------------
A-5--5-5-5-5------------------------------------------7-7-7-7-7-8-8-8-8-8-8/10-10-10---
E-------------------------------------------5h6-6-6-6----------------------------------
(continued)
E----------------------------------------------------------------------------------------------
B----------------------------------------------------------------------------------------------
G----------------------------------------------------------------------------------------------
D------------7--7-7-7-7-8--8-8-8-8-8/10-10-10-10-----------------------------------------------
A-5--5-5-5-5------------------------------------------------7--7-7-7-7--8h7-7-7-7--5h7-7-7h5-5-
E------------------------------------------------6--6-6-6-6------------------------------------
(continued)
E----------------------------------------------------------------------------
B----------------------------------------------------------------------------
G----------------------------------------------------------------------------
D------------7--7-7-7-7--8-7-5-7--5h7p5--------------------------------------
A-5--5-5-5-5----------------------------8------------7--7-7-7-7--8-7-5-7-5-3-
E-----------------------------------------6--6-6-6-6-------------------------
(continued)
E----------------------------------------------------------------------------
B----------------------------------------------------------------------------
G-6-6-6-6-6-6-6-6-6-6-6-6-6--6-7-7-7-7-7-7-7-7-7-7-7-7-7---------------------
D-x-x-x-x-x-x-x-x-x-x-x-x-x--x-x-x-x-x-x-x-x-x-x-x-x-x-x---------------------
A-4-4-4-4-4-4-4-4-4-4-4-4-4--4/5-5-5-5-5-5-5-5-5-5-5-5-5---------------------
E----------------------------------------------------------------------------
(continued)
E----------------------------------------------------------------------------
B----------------------------------------------------------------------------
G-14-14-14-14-14-14-14-14-14-14-14-14--13--13--13--13--13--13--13--13~-------
D--x--x--x--x--x--x--x--x--x--x--x--x---x---x---x---x---x---x---x---x--------
A-12-12-12-12-12-12-12-12-12-12-12-12--11--11--11--11--11--11--11--11~-------
E----------------------------------------------------------------------------
            
Submit corrections


        Yatahaze lessons Hard to play? Try these video lessons and learn fast Yatahaze lessons
        
↑ Back to top | Tablatures and chords for acoustic guitar and electric guitar, ukulele, drums are parodies/interpretations of the original songs. You may use it for private study, scholarship, research or language learning purposes only