» » »

Dredg - The Canyon Behind Her Tabs

Artists:  A B C D E F G H I J K L M N O P Q R S T U V W X Y Z # 

The Canyon Behind Her Tabs

(ver. 1) Click to play this song!
Dredg
 Rating:
4/5 (4 votes)

 The Canyon Behind Her lessons Tabs too difficult? Try these video lessons and learn fast
 
                Dredg- The Canyon Behind Her
Standard Tuning: EADGBE

Opening is clean w/ slight echo effect:
e-------------------------|
b--12--12-12-11-11--------|
g------------------11\8-8-|
d-------------------------|
a-------------------------|
e-------------------------|

e-------------------------|
b--12--12-12-14-14-11\9-9-|
g-------------------------|
d-------------------------|
a-------------------------|
e-------------------------|

e-------------------------|
b--12--12-12-11-11--------|
g------------------11\8-8-|
d-------------------------|
a-------------------------|
e-------------------------|

e-------------------------|
b--12--12-12-14-14-11\9-9-|
g-------------------------|
d-------------------------|
a-------------------------|
e-------------------------|

e-------------------------|
b--12--12-12-11-11--------|
g------------------11\8-8-|
d-------------------------|
a-------------------------|
e-------------------------|

e-------------------------|
b--12--12-12-14-14-11\9-9-|
g-------------------------|
d-------------------------|
a-------------------------|
e-------------------------|

Distortion w/ fast strumming:
e---------------------------------------------------------------------------|
b---------------------------------------------------------------------------|
g-13-13-13-13-13-13-13-13-16-16-16-16-16-16-16-16-15-15-15-15-15-15-15-15---|
d--x--x--x--x--x--x--x--x--x--x--x--x--x--x--x--x--x--x--x--x--x--x--x--x---|
a-11-11-11-11-11-11-11-11-14-14-14-14-14-14-14-14-13-13-13-13-13-13-13-13---|
e---------------------------------------------------------------------------|

e---------------------------------------------------------------------------|
b---------------------------------------------------------------------------|
g-11-11-11-11-11-11-11-11-13-13-13-13-13-13-13-13-16-16-16-16-16-16-16-16---|
d--x--x--x--x--x--x--x--x--x--x--x--x--x--x--x--x--x--x--x--x--x--x--x--x---|
a--9--9--9--9--9--9--9--9-11-11-11-11-11-11-11-11-14-14-14-14-14-14-14-14---|
e---------------------------------------------------------------------------|

e-------------------------------------------------|
b-------------------------------------------------|
g-15-15-15-15-15-15-15-15-18-18-18-18-18-18-18-18-|
d--x--x--x--x--x--x--x--x--x--x--x--x--x--x--x--x-|
a-13-13-13-13-13-13-13-13-16-16-16-16-16-16-16-16-|
e-------------------------------------------------|

e---------------------------------------------------------------------|
b-4-4-4-4-4-4-4-4-4-5-5-5-5-5-5-5-5-4-4-4-4-4-4-4-4-4-7-7-7-7-7-7-7-7-|
g-6-6-6-6-6-6-6-6-6-6-6-6-6-6-6-6-6-6-6-6-6-6-6-6-6-6-x-x-x-x-x-x-x-x-
d-6-6-6-6-6-6-6-6-6-6-6-6-6-6-6-6-6-6-6-6-6-6-6-6-6-6-4-4-4-4-4-4-4-4-
a-4-4-4-4-4-4-4-4-4-4-4-4-4-4-4-4-4-4-4-4-4-4-4-4-4-4-----------------|
e---------------------------------------------------------------------|

e---------------------------------------------------------------------------|
b---------------------------------------------------------------------------|
g-13-13-13-13-13-13-13-13-16-16-16-16-16-16-16-16-15-15-15-15-15-15-15-15---|
d--x--x--x--x--x--x--x--x--x--x--x--x--x--x--x--x--x--x--x--x--x--x--x--x---|
a-11-11-11-11-11-11-11-11-14-14-14-14-14-14-14-14-13-13-13-13-13-13-13-13---|
e---------------------------------------------------------------------------|

e---------------------------------------------------------------------------|
b---------------------------------------------------------------------------|
g-11-11-11-11-11-11-11-11-13-13-13-13-13-13-13-13-16-16-16-16-16-16-16-16---|
d--x--x--x--x--x--x--x--x--x--x--x--x--x--x--x--x--x--x--x--x--x--x--x--x---|
a--9--9--9--9--9--9--9--9-11-11-11-11-11-11-11-11-14-14-14-14-14-14-14-14---|
e---------------------------------------------------------------------------|

e-------------------------------------------------|
b-------------------------------------------------|
g-15-15-15-15-15-15-15-15-18-18-18-18-18-18-18-18-|
d--x--x--x--x--x--x--x--x--x--x--x--x--x--x--x--x-|
a-13-13-13-13-13-13-13-13-16-16-16-16-16-16-16-16-|
e-------------------------------------------------|

Like opening part, clean w/ slight echo effect:
e-------------------------|
b--12--12-12-11-11--------|
g------------------11\8-8-|
d-------------------------|
a-------------------------|
e-------------------------|

e-------------------------|
b--12-12-14-14-11\9-9-----|
g-------------------------|
d-------------------------|
a-------------------------|
e-------------------------|

e-------------------------|
b--12-12-11-11------------|
g--------------11\8-8-----|
d-------------------------|
a-------------------------|
e-------------------------|

e-------------------------|
b--12-12-14-14-11\9-9-----|
g-------------------------|
d-------------------------|
a-------------------------|
e-------------------------|

e-------------------------|
b--12-12-11-11------------|
g--------------11\8-8-----|
d-------------------------|
a-------------------------|
e-------------------------|

e-------------------------|
b--12-12-14-14-11\9-9-----|
g-------------------------|
d-------------------------|
a-------------------------|
e-------------------------|

e-------------------------|
b--12--12-12-11-11--------|
g------------------11\8-8-|
d-------------------------|
a-------------------------|
e-------------------------|

e-------------------------|
b--12-12-14-14-11\9-9-----|
g-------------------------|
d-------------------------|
a-------------------------|
e-------------------------|

e-------------------------|
b--12-12-11-11------------|
g--------------11\8-8-----|
d-------------------------|
a-------------------------|
e-------------------------|

e--11-11-11-11-11-11-11---|
b-------------------------|
g-------------------------|
d-------------------------|
a-------------------------|
e-------------------------|

Distortion w/ fast strumming:
e---------------------------------------------------------------------------|
b---------------------------------------------------------------------------|
g-13-13-13-13-13-13-13-13-16-16-16-16-16-16-16-16-15-15-15-15-15-15-15-15---|
d--x--x--x--x--x--x--x--x--x--x--x--x--x--x--x--x--x--x--x--x--x--x--x--x---|
a-11-11-11-11-11-11-11-11-14-14-14-14-14-14-14-14-13-13-13-13-13-13-13-13---|
e---------------------------------------------------------------------------|

e---------------------------------------------------------------------------|
b---------------------------------------------------------------------------|
g-11-11-11-11-11-11-11-11-13-13-13-13-13-13-13-13-16-16-16-16-16-16-16-16---|
d--x--x--x--x--x--x--x--x--x--x--x--x--x--x--x--x--x--x--x--x--x--x--x--x---|
a--9--9--9--9--9--9--9--9-11-11-11-11-11-11-11-11-14-14-14-14-14-14-14-14---|
e---------------------------------------------------------------------------|

e-------------------------------------------------|
b-------------------------------------------------|
g-15-15-15-15-15-15-15-15-18-18-18-18-18-18-18-18-|
d--x--x--x--x--x--x--x--x--x--x--x--x--x--x--x--x-|
a-13-13-13-13-13-13-13-13-16-16-16-16-16-16-16-16-|
e-------------------------------------------------|

e---------------------------------------------------------------------|
b-4-4-4-4-4-4-4-4-4-5-5-5-5-5-5-5-5-4-4-4-4-4-4-4-4-4-7-7-7-7-7-7-7-7-|
g-6-6-6-6-6-6-6-6-6-6-6-6-6-6-6-6-6-6-6-6-6-6-6-6-6-6-x-x-x-x-x-x-x-x-|
d-6-6-6-6-6-6-6-6-6-6-6-6-6-6-6-6-6-6-6-6-6-6-6-6-6-6-4-4-4-4-4-4-4-4-|
a-4-4-4-4-4-4-4-4-4-4-4-4-4-4-4-4-4-4-4-4-4-4-4-4-4-4-----------------|
e---------------------------------------------------------------------|

e---------------------------------------------------------------------------|
b---------------------------------------------------------------------------|
g-13-13-13-13-13-13-13-13-16-16-16-16-16-16-16-16-15-15-15-15-15-15-15-15---|
d--x--x--x--x--x--x--x--x--x--x--x--x--x--x--x--x--x--x--x--x--x--x--x--x---|
a-11-11-11-11-11-11-11-11-14-14-14-14-14-14-14-14-13-13-13-13-13-13-13-13---|
e---------------------------------------------------------------------------|

e---------------------------------------------------------------------------|
b---------------------------------------------------------------------------|
g-11-11-11-11-11-11-11-11-13-13-13-13-13-13-13-13-16-16-16-16-16-16-16-16---|
d--x--x--x--x--x--x--x--x--x--x--x--x--x--x--x--x--x--x--x--x--x--x--x--x---|
a--9--9--9--9--9--9--9--9-11-11-11-11-11-11-11-11-14-14-14-14-14-14-14-14---|
e---------------------------------------------------------------------------|

e-------------------------------------------------|
b-------------------------------------------------|
g-15-15-15-15-15-15-15-15-18-18-18-18-18-18-18-18-|
d--x--x--x--x--x--x--x--x--x--x--x--x--x--x--x--x-|
a-13-13-13-13-13-13-13-13-16-16-16-16-16-16-16-16-|
e-------------------------------------------------|

e------------------------------------------|
b------------------------------------------|
g--16-16-16-16-16-16-16-16-16-15-15-15-15--|
d---x--x--x--x--x--x--x--x--x--x--x--x--x--|
a--14-14-14-14-14-14-14-14-14-13-13-13-13--|
e------------------------------------------|

Hard strums still with distortion:
(Gavin hits his slide guitar which makes up some of the music heard here)
e----------------------------------------------------------------------|
b----------------------------------------------------------------------|
g----------------------------------------------------------------------|
d--0-0----0-0----0-0----0-0----0----0----0----0----0----0----0----0----|
a--0-0----0-0----0-0----0-0----0----0----0----0----0----0----0----0----|
e--0-0----0-0----0-0----0-0----0----0----0----0----0----0----0----0----|

Play like the opening on clean w/ slight echo effect:
e-------------------------|
b--12--12-12-14-14-11\9-9-|
g-------------------------|
d-------------------------|
a-------------------------|
e-------------------------|

e-------------------------|
b--12-12-11-11------------|
g--------------11\8-8-----|
d-------------------------|
a-------------------------|
e-------------------------|

e-------------------------|
b--12-12-14-14-11\9-9-----|
g-------------------------|
d-------------------------|
a-------------------------|
e-------------------------|

e-------------------------|
b--12-12-11-11------------|
g--------------11\8-8-----|
d-------------------------|
a-------------------------|
e-------------------------|

e-------------------------|
b--12-12-14-14-11\9-9-----|
g-------------------------|
d-------------------------|
a-------------------------|
e-------------------------|

e-------------------------|
b--12-12-11-11------------|
g-------------11\8-8------|
d-------------------------|
a-------------------------|
e-------------------------|

e-------------------------|
b--12-12-14-14-11\9-9-----|
g-------------------------|
d-------------------------|
a-------------------------|
e-------------------------|

Distortion w/ fast strumming:
e---------------------------------------------------------------------------|
b---------------------------------------------------------------------------|
g-13-13-13-13-13-13-13-13-16-16-16-16-16-16-16-16-15-15-15-15-15-15-15-15---|
d--x--x--x--x--x--x--x--x--x--x--x--x--x--x--x--x--x--x--x--x--x--x--x--x---|
a-11-11-11-11-11-11-11-11-14-14-14-14-14-14-14-14-13-13-13-13-13-13-13-13---|
e---------------------------------------------------------------------------|

e---------------------------------------------------------------------------|
b---------------------------------------------------------------------------|
g-11-11-11-11-11-11-11-11-13-13-13-13-13-13-13-13-16-16-16-16-16-16-16-16---|
d--x--x--x--x--x--x--x--x--x--x--x--x--x--x--x--x--x--x--x--x--x--x--x--x---|
a--9--9--9--9--9--9--9--9-11-11-11-11-11-11-11-11-14-14-14-14-14-14-14-14---|
e---------------------------------------------------------------------------|

e-------------------------------------------------|
b-------------------------------------------------|
g-15-15-15-15-15-15-15-15-18-18-18-18-18-18-18-18-|
d--x--x--x--x--x--x--x--x--x--x--x--x--x--x--x--x-|
a-13-13-13-13-13-13-13-13-16-16-16-16-16-16-16-16-|
e-------------------------------------------------|

e---------------------------------------------------------------------------|
b---------------------------------------------------------------------------|
g-13-13-13-13-13-13-13-13-16-16-16-16-16-16-16-16-15-15-15-15-15-15-15-15---|
d--x--x--x--x--x--x--x--x--x--x--x--x--x--x--x--x--x--x--x--x--x--x--x--x---|
a-11-11-11-11-11-11-11-11-14-14-14-14-14-14-14-14-13-13-13-13-13-13-13-13---|
e---------------------------------------------------------------------------|

e---------------------------------------------------------------------------|
b---------------------------------------------------------------------------|
g-11-11-11-11-11-11-11-11-13-13-13-13-13-13-13-13-16-16-16-16-16-16-16-16---|
d--x--x--x--x--x--x--x--x--x--x--x--x--x--x--x--x--x--x--x--x--x--x--x--x---|
a--9--9--9--9--9--9--9--9-11-11-11-11-11-11-11-11-14-14-14-14-14-14-14-14---|
e---------------------------------------------------------------------------|

e-------------------------------------------------|
b-------------------------------------------------|
g-15-15-15-15-15-15-15-15-18-18-18-18-18-18-18-18-|
d--x--x--x--x--x--x--x--x--x--x--x--x--x--x--x--x-|
a-13-13-13-13-13-13-13-13-16-16-16-16-16-16-16-16-|
e-------------------------------------------------|

Ending:
(strumming pattern is difficult here so do what you want)
e-7-6-7-9-7-6-14-12-11-9-7-6-7-6-7-9-7-6-|
b-x-x-x-x-x-x--x--x--x-x-x-x-x-x-x-x-x-x-|
g-4-3-4-6-4-3-11--9--8-6-4-3-4-3-4-6-4-3-|
d----------------------------------------|
a----------------------------------------|
e----------------------------------------|

e-19-18-19-21-19-14-12-11-9-7~~~~~~~~~~-|
b--x--x--x--x--x--x--x--x-x-x~~~~~~~~~~-|
g-16-15-16-18-16-11--9--8-6-4~~~~~~~~~~-|
d---------------------------------------|
a---------------------------------------|
e---------------------------------------|

-end.
            
Submit corrections


        The Canyon Behind Her lessons Hard to play? Try these video lessons and learn fast The Canyon Behind Her lessons
        
↑ Back to top | Tablatures and chords for acoustic guitar and electric guitar, ukulele, drums are parodies/interpretations of the original songs. You may use it for private study, scholarship, research or language learning purposes only