» » »

Dredg - Scissor Lock Tabs

Artists:  A B C D E F G H I J K L M N O P Q R S T U V W X Y Z # 

Scissor Lock Tabs

(ver. 1) Click to play this song!
Dredg
 Rating:
4/5 (4 votes)

 Scissor Lock lessons Tabs too difficult? Try these video lessons and learn fast
 
                Intro: I don't know something on slide guitar 

Verse: Just the riffs 
|--------------------||----------------------| 
|*---12---12---12---*||*-14---14---14----14-*| 
|-14---14---14---14--||-----16---16----16----| 
|--------------------||----------------------| 
|*------------------*||*--------------------*| 
|--------------------||----------------------| 

Chorus: 
|-------------| 
|15-14---14---| 
|-----------14| 
|-------------| 
|-------------| 
|-------------| 

Bridge:(hard to hear) 
|-----------------------------------| 
|-----------------------------------| 
|4----2--7----12--4----2--7----6----| 
|-----------------------------------| 
|-----------------------------------| 
|-----------------------------------| 

outro: 
|-----------| 
|-----------| 
|-----------| 
|-----------| 
|------0--1-| 
|0----------|
            
Submit corrections


        Scissor Lock lessons Hard to play? Try these video lessons and learn fast Scissor Lock lessons
        
↑ Back to top | Tablatures and chords for acoustic guitar and electric guitar, ukulele, drums are parodies/interpretations of the original songs. You may use it for private study, scholarship, research or language learning purposes only