» » »

Dredg - Movement Iii: Lyndon Tabs

Artists:  A B C D E F G H I J K L M N O P Q R S T U V W X Y Z # 

Movement Iii: Lyndon Tabs

(ver. 1) Click to play this song!
Dredg
 Rating:
4/5 (4 votes)

 Movement Iii: Lyndon lessons Tabs too difficult? Try these video lessons and learn fast
 
                Dredg
movement III: lyndon

1st guitar (second guitar at the bottom)

E----2-2-2-2-2-0-0-0-0-2-2-2--
B----3-3-3-3-3-3-3-3-3-3-3-3--
G----4-4-4-4-4-4-4-4-4-4-4-4--
D-----------------------------
A-2~--------------------------
E-----------------------------

0:22
E------------------3-3-3-3-0-0-0-0-
B----------5-5-5-5-5-5-5-5-5-5-5-5-
G----------5-5-5-5-5-5-5-5-5-5-5-5-
D----------------------------------
A-2h3p2-3~-------------------------
E----------------------------------

then play this...
E----2-2-2-2-2-2-0-0-0-0-2-2-2---------------------------------------
B----3-3-3-3-3-3-3-3-3-3-3-3-3-----------5-5-5-5-5-3-3-3-3-----------
G----4-4-4-4-4-4-4-4-4-4-4-4-4-----------5-5-5-5-5-5-5-5-5-5h4-4-4-4-
D--------------------------------------------------------------------
A-2~----------------------------2h3p2-3~-----------------------------
E--------------------------------------------------------------------
(continued)
E----2-2-2-2-2-2-0-0-0-0-2-2-2---------------------3-3-3-3-0-0-0-0-
B----3-3-3-3-3-3-3-3-3-3-3-3-3-----------5-5-5-5-5-5-5-5-5-5-5-5-5-
G----4-4-4-4-4-4-4-4-4-4-4-4-4-----------5-5-5-5-5-5-5-5-5-5-5-5-5-
D------------------------------------------------------------------
A-2~----------------------------2h3p2-3~---------------------------
E------------------------------------------------------------------
(continued) 0:44
E----2-2-2-2-2-2-0-0-0-0-2-2-2---------------------3-3-0-0---------
B----3-3-3-3-3-3-3-3-3-3-3-3-3-----------5-5-5-5-5-5-5-5-5-5-5-0-0-
G----4-4-4-4-4-4-4-4-4-4-4-4-4-----------5-5-5-5-5-5-5-5-5-5-5-4-4-
D------------------------------------------------------------------
A-2~----------------------------2h3p2-3~---------------------------
E------------------------------------------------------------------
0:52
(continued)
E----2-2-2-2-2-2-0-0-0-0-2-2-2---------------------3-3-3-3-0-0-0-0-
B----3-3-3-3-3-3-3-3-3-3-3-3-3-----------5-5-5-5-5-5-5-5-5-5-5-5-5-
G----4-4-4-4-4-4-4-4-4-4-4-4-4-----------5-5-5-5-5-5-5-5-5-5-5-5-5-
D------------------------------------------------------------------
A-2~----------------------------2h3p2-3~---------------------------
E------------------------------------------------------------------
(continued)
E----2-2-2-2-2-2-0-0-0-0-2-2-2---------------------3-3-3-3-2-2-2-2-
B----3-3-3-3-3-3-3-3-3-3-3-3-3-----------5-5-5-5-5-5-5-5-5-5-5-5-5-
G----4-4-4-4-4-4-4-4-4-4-4-4-4-----------5-5-5-5-5-5-5-5-5-5-5-5-5-
D------------------------------------------------------------------
A-2~----------------------------2h3p2-3~---------------------------
E------------------------------------------------------------------
(continued)
E----2-2-2-2-2-2-0-0-0-0-2-2-2-------------------------------------
B----3-3-3-3-3-3-3-3-3-3-3-3-3-----------5-5-5-5-5-5-3-3-3-3-------
G----4-4-4-4-4-4-4-4-4-4-4-4-4-----------5-5-5-5-5-5-5-5-5-5-5-5-5-
D------------------------------------------------------------------
A-2~----------------------------2h3p2-3~---------------------------
E------------------------------------------------------------------
(continued)
E----2-2-2-2-2-2-0-0-0-0-2-2-2-------------------------------------
B----3-3-3-3-3-3-3-3-3-3-3-3-3-----------5-5-5-5-5-5-3-3-3-3-------
G----4-4-4-4-4-4-4-4-4-4-4-4-4-----------5-5-5-5-5-5-5-5-5-5-5-5-5-
D------------------------------------------------------------------
A-2~----------------------------2h3p2-3~---------------------------
E------------------------------------------------------------------
(continued)
E----2-2-2-2-2-2-0-0-0-0-2-2-2--------------------3-3-0-0-3-3-0-0--
B----3-3-3-3-3-3-3-3-3-3-3-3-3-----------5-5-5-5-5-5-5-5-5-5-5-5-5-
G----4-4-4-4-4-4-4-4-4-4-4-4-4-----------5-5-5-5-5-5-5-5-5-5-5-5-5-
D------------------------------------------------------------------
A-2~----------------------------2h3p2-3~---------------------------
E------------------------------------------------------------------
1:27(continued)
E----2-2-2-2-2-2-0-0-0-0-2-2-2--5-5-5-5--5-3-3-3-3--2-2-2-2-2--3-3-3-3-3-
B----3-3-3-3-3-3-3-3-3-3-3-3-3-------------------------------------------
G----4-4-4-4-4-4-4-4-4-4-4-4-4-------------------------------------------
D------------------------------------------------------------------------
A-2~---------------------------------------------------------------------
E------------------------------------------------------------------------
(continued)
E----2-2-2-2-2-2-0-0-0-0-2-2-2--------------------3-3-0-0-3-3-0-0--
B----3-3-3-3-3-3-3-3-3-3-3-3-3-----------5-5-5-5-5-5-5-5-5-5-5-5-5-
G----4-4-4-4-4-4-4-4-4-4-4-4-4-----------5-5-5-5-5-5-5-5-5-5-5-5-5-
D------------------------------------------------------------------
A-2~----------------------------2h3p2-3~---------------------------
E------------------------------------------------------------------
(continued)
E----2-2-2-2-2-2-0-0-0-0-2-2-2--5-5-5-5--5-3-3-3-3--2-2-2-2-2--3-3-3-5-3-
B----3-3-3-3-3-3-3-3-3-3-3-3-3-------------------------------------------
G----4-4-4-4-4-4-4-4-4-4-4-4-4-------------------------------------------
D------------------------------------------------------------------------
A-2~---------------------------------------------------------------------
E------------------------------------------------------------------------
(continued)
E----2-2-2-2-2-2-0-0-0-0-2-2-2-------------------------------------
B----3-3-3-3-3-3-3-3-3-3-3-3-3-----------5-5-5-5-5-5-5-5-5-5-5-5-5-
G----4-4-4-4-4-4-4-4-4-4-4-4-4-----------5-5-5-5-5-5-5-5-5-5-5-5-5-
D------------------------------------------------------------------
A-2~----------------------------2h3p2-3~---------------------------
E------------------------------------------------------------------
(continued)
E----2-2-2-2-2-2-0-0-0-0-2-2-2-------------------------------------
B----3-3-3-3-3-3-3-3-3-3-3-3-3-----------5-5-5-5-5-5-3-3-3-3-------
G----4-4-4-4-4-4-4-4-4-4-4-4-4-----------5-5-5-5-5-5-5-5-5-5-5-5-5-
D------------------------------------------------------------------
A-2~----------------------------2h3p2-3~---------------------------
E------------------------------------------------------------------
(continued)
E----2-2-2-2-2-2-0-0-0-0-2-2-2--5-5-5-7-7-7-8-8-8-10-10-10-8-8-8-7-7-7-5-5-7-3---
B----3-3-3-3-3-3-3-3-3-3-3-3-3--0-0-0-0-0-0-0-0-0-0-0-0-0-0-0-0-0-0-0-0-0-0-0--0-
G----4-4-4-4-4-4-4-4-4-4-4-4-4---------------------------------------------------
D--------------------------------------------------------------------------------
A-2~-----------------------------------------------------------------------------
E--------------------------------------------------------------------------------
(continued)
E------------------------------------------------14b-12--15--17-15-14h15-14h5-12/14-
B-7b-5-8~--10-8-7h8-7h8--7~--7/8-5-3-3/5-3-1-0~-------------------------------------
G-----------------------------------------------------------------------------------
D-----------------------------------------------------------------------------------
A-----------------------------------------------------------------------------------
E-----------------------------------------------------------------------------------
(continued) 
E------------------
B-7h8-5-3--5-3-1---
G------------------
D------------------
A------------------
E------------------
-end of song


**********************************

**********************************

now here is what guitar 2 does....

0:52, repeat until 1:27
E----------------------------------------------------------------------------
B-12-13-12-------------------------------------------------------------------
G-----------11-12-11---------------------------------------------------------
D---------------------9-10-9--7--7--10-10-10-10-10-10--12-12-12-12/10-10-10--
A----------------------------------------------------------------------------
E----------------------------------------------------------------------------

1:27, repeat until 1:52
E-------------------------------------------------------------------------
B-12-13-12----------------------------------------------------------------
G-----------11-12-11------------------------------------------------------
D---------------------9-10-9--7--7--10-10-10-10-10-10--12-12-12-10-10-10--
A-------------------------------------------------------------------------
E-------------------------------------------------------------------------

1:52, repeat this until 2:15
E----------
B-12-13-12-
G----------
D----------
A----------
E----------

submitted by marcus
            
Submit corrections


        Movement Iii: Lyndon lessons Hard to play? Try these video lessons and learn fast Movement Iii: Lyndon lessons
        
↑ Back to top | Tablatures and chords for acoustic guitar and electric guitar, ukulele, drums are parodies/interpretations of the original songs. You may use it for private study, scholarship, research or language learning purposes only