» » »

Dredg - Lightswitch Tabs

Artists:  A B C D E F G H I J K L M N O P Q R S T U V W X Y Z # 

Lightswitch Tabs

(ver. 1) Click to play this song!
Dredg
 Rating:
4.3/5 (6 votes)

 Lightswitch lessons Tabs too difficult? Try these video lessons and learn fast
 
                I am taking requests for the new album. The song with the most requests is being tabbed.


INTRO/VERSE

E|----------------------------------------------------------|l
B|----------------------------------------------------------|l
G|------------0--3-----------0-------------0-----0------0---|l
D|-------0h3-----------3--------0-----0h3-------------------|l
A|--------------------------------------------3-----1p---0--|l
E|--2/3-------------3-----3--------3------------------------|l

E|----------------------------------------------------------|l
B|----------------------------------------------------------|l
G|------------0--3-----------0-------------0-----0------0---|l
D|-------0h3-----------3--------0-----0h3-------------------|l
A|--------------------------------------------3-----1p---0--|l
E|----3-------------3-----3--------3------------------------|l

E|-----------------------------------------------------------|l
B|-----------------------------------------------------------|l
G|------------0--3-----------0-------------0-----0------0----|l
D|-------0h3-----------3--------0-----0h3--------------------|l
A|--------------------------------------------3-----1p---0---|l
E|----3-------------3-----3--------3-------------------------|l

E|----------------------------------------------------------|l
B|----------------------------------------------------------|l
G|------------0--3-----------0-------------0-----0------0---|l
D|-------0h3-----------3--------0-----0h3-------------------|l
A|--------------------------------------------3-----3/5-----|l
E|----3-------------3-----3--------3------------------------|l

E|----------------------------------------------------------|l
B|----------------------------------------------------------|l
G|------------0--3-----------0-------------0-----0------0---|l
D|-------0h3-----------3--------0-----0h3-------------------|l
A|--------------------------------------------3-----1p---0--|l
E|----3-------------3-----3--------3------------------------|l

E|----------------------------------------------------------|l
B|----------------------------------------------------------|l
G|------------0--3-----------0-------------0-----0------0---|l
D|-------0h3-----------3--------0-----0h3-------------------|l
A|--------------------------------------------3-----1p------|l
E|----3-------------3-----3--------3------------------------|l

CHORUS
E|------------------------------------------------------|l
B|--8--------8--------6-----4--------4--------3---------|l
G|-----8--------8--------7-----5--------5--------3------|l
D|--------8--------8--------------5--------5------------|l
A|------------------------------------------------------|l
E|------------------------------------------------------|l

E|-------------------------------------------------|l
B|--8--------8--------10------11----------11-------|l
G|-----8--------8---------10------12----------12---|l
D|--------8--------8------------------12-----------|l
A|-------------------------------------------------|l
E|-------------------------------------------------|l

E|------------------------------------------------------|l
B|--8--------8--------6-----4--------4--------3---------|l
G|-----8--------8--------7-----5--------5--------3------|l
D|--------8--------8--------------5--------5------------|l
A|------------------------------------------------------|l
E|------------------------------------------------------|l

E|--------------------------------------------------|l
B|--8--------8--------10------11----------11--------|l
G|-----8--------8---------10------12----------12----|l
D|--------8--------8------------------12------------|l
A|--------------------------------------------------|l
E|--------------------------------------------------|l


VERSE:
E|-----------------------------------------------------------|l
B|-----------------------------------------------------------|l
G|------------0--3-----------0-------------0-----0------0----|l
D|-------0h3-----------3--------0-----0h3--------------------|l
A|--------------------------------------------3-----1p---0---|l
E|--2/3-------------3-----3--------3-------------------------|l

E|---------------------------------------------------------|l
B|---------------------------------------------------------|l
G|------------0--3-----------0-------------0-----0---------|l
D|-------0h3-----------3--------0-----0h3------------------|l
A|--------------------------------------------3-----1------|l
E|----3-------------3-----3--------3-----------------------|l

E|-----------------------------------------------------------|l
B|-----------------------------------------------------------|l
G|------------0--3-----------0-------------0-----0------0----|l
D|-------0h3-----------3--------0-----0h3--------------------|l
A|--------------------------------------------3-----1p---0---|l
E|----3-------------3-----3--------3-------------------------|l

E|---------------------------------------------------------|l
B|---------------------------------------------------------|l
G|------------0--3-----------0-------------0-----0---------|l
D|-------0h3-----------3--------0-----0h3------------------|l
A|--------------------------------------------3-----3--1---|l
E|----3-------------3-----3--------3-----------------------|l

E|-----------------------------------------------------------|l
B|-----------------------------------------------------------|l
G|------------0--3-----------0-------------0-----0------0----|l
D|-------0h3-----------3--------0-----0h3--------------------|l
A|--------------------------------------------3-----1p---0---|l
E|----3-------------3-----3--------3-------------------------|l

E|---------------------------------------------------------|l
B|---------------------------------------------------------|l
G|------------0--3-----------0-------------0-----0---------|l
D|-------0h3-----------3--------0-----0h3------------------|l
A|--------------------------------------------3-----3--1---|l
E|----3-------------3-----3--------3-----------------------|l


CHORUS:

E|------------------------------------------------------|l
B|--8--------8--------6-----4--------4--------3---------|l
G|-----8--------8--------7-----5--------5--------3------|l
D|--------8--------8--------------5--------5------------|l
A|------------------------------------------------------|l
E|------------------------------------------------------|l

E|--------------------------------------------------|l
B|--8--------8--------10------11----------11--------|l
G|-----8--------8---------10------12----------12----|l
D|--------8--------8------------------12------------|l
A|--------------------------------------------------|l
E|--------------------------------------------------|l

E|------------------------------------------------------|l
B|--8--------8--------6-----4--------4--------3---------|l
G|-----8--------8--------7-----5--------5--------3------|l
D|--------8--------8--------------5--------5------------|l
A|------------------------------------------------------|l
E|------------------------------------------------------|l

E|-------------------------------------------------|l
B|--8--------8--------10------11----------11-------|l
G|-----8--------8---------10------12----------12---|l
D|--------8--------8------------------12-----------|l
A|-------------------------------------------------|l
E|-------------------------------------------------|l


Bridge

E|----------------------------------------10-------|l
B|--13--11--10------10----13--11--10----------13---|l
G|--------------12--------------------12-----------|l
D|-------------------------------------------------|l
A|-------------------------------------------------|l
E|-------------------------------------------------|l

E|-------------------------------------|l
B|--13--11—13---11---10--------10------|l
G|-------------------------12----------|l
D|-------------------------------------|l
A|-------------------------------------|l
E|-------------------------------------|l

CRUNCH/DISTORTION
E|--------------------|l
B|--------------------|l
G|--------------------|l
D|--5----------4------|l
A|--5----------5------|l
E|--3----------5------|l   repeat as necessary

Listen carefully to the picking rhythm in the verses. There are little nuances such the 
of from Bb to A on the 5 string. The bridge does not feature a “main” guitar part, but 
above will do. That’s about it. This is my first tab, it looks kind of messy.
            
Submit corrections


        Lightswitch lessons Hard to play? Try these video lessons and learn fast Lightswitch lessons
        
↑ Back to top | Tablatures and chords for acoustic guitar and electric guitar, ukulele, drums are parodies/interpretations of the original songs. You may use it for private study, scholarship, research or language learning purposes only