» » »

Dredg - Jamais Vu Tabs

Artists:  A B C D E F G H I J K L M N O P Q R S T U V W X Y Z # 

Jamais Vu Tabs

(ver. 1) Click to play this song!
Dredg
 Rating:
4.2/5 (5 votes)

 Jamais Vu lessons Tabs too difficult? Try these video lessons and learn fast
 
                Thanks to Zeradin for this tab

Band: Dredg
Standard (E a d g b e)


~ = Vibrato
/ and \ = Slides
^ = Bend
<5> = Natural Harmonics
pm = Palm Muting
p and h = pull off and hammer on, respectively


Intro(0.00-0.15)
E---------------------------------------------------8p6-6-------------8p6-6--|
B----9/8--8----9/8--8---11p8-8---11p8-8----11p6-6-------6----11p6-6-------6--|
G--10---10---10---10---8----8---8----8----6----6--6----6---6-----6--6----6---|
D----------------------------------------------------------------------------|
A----------------------------------------------------------------------------|
E----------------------------------------------------------------------------|

Verse1(0.15-0.45) Verse fill(0.32,0.40)
E---------------- E-----------------------------------------|
B----9/8--8-----  B-----11p8-8---11p8-8---------------------|
G--10---10------- G---8-----8--8-----8----------------------|
D---------------- D-----------------------------------------|
A---------------- A-----------------------------------------|
E---------------- E-----------------------------------------|

Chorus(0.45-1.16)a)
E-----------------------------------------------------------|
B--9--9--9--9--9--9--9--9-11-11-11-11-11-11-11-11-----------|
G-10-10-10-10-10-10-10-10--8--8--8--8--8--8--8--8-----------|
D-----------------------------------------------------------|
A-----------------------------------------------------------|
E-----------------------------------------------------------|

E-8--8--8--8--8--8--8--8--8--8--8--8--8--8--8--8------------|
B-6--6--6--6--6--6--6--6--6--6--6--6--6--6--6--6------------|
G-6--6--6--6--6--6--6--6--6--6--6--6--6--6--6--6------------|
D-----------------------------------------------------------|
A-----------------------------------------------------------|
E-----------------------------------------------------------|
b)
E-----------------------------------------------------------|
B--9--9--9--9--9--9--9--9-11-11-11-11-11-11-11-11-----------|
G-10-10-10-10-10-10-10-10--8--8--8--8--8--8--8--8-----------|
D-----------------------------------------------------------|
A-----------------------------------------------------------|
E-----------------------------------------------------------|

E-----------------------------------------------------------|
B-11-11-11-11-11-11-11-11-11-11-11-11-11-11-11-11-----------|
G-10-10-10-10-10-10-10-10-10-10-10-10-10-10-10-10-----------|
D-11-11-11-11-11-11-11-11-11-11-11-11-11-11-11-11-----------|
A-----------------------------------------------------------|
E-----------------------------------------------------------|

Chorus fill (1.10)b2)
E-----------------------------------------------------------|
B--9--9--9--9--9--9--9--9--8--8--8--8--8--8--8--8-----------|
G-10-10-10-10-10-10-10-10-10-10-10-10-10-10-10-10-----------|
D-----------------------------------------------------------|
A-----------------------------------------------------------|
E-----------------------------------------------------------|

E-----------------------------------------------------------|
B-11-11-11-11-11-11-11-11-11-11-11-11-11-11-11-11-----------|
G-10-10-10-10-10-10-10-10-10-10-10-10-10-10-10-10-----------|
D-11-11-11-11-11-11-11-11-11-11-11-11-11-11-11-11-----------|
A-----------------------------------------------------------|
E-----------------------------------------------------------|

Verse1 (1.16-1.46)

Chorus (1.46-2.15)

Solo[Slam on the overdrive](2.16-2.46)
E-----------------------------------------------------------|
B-----------------------------------------------------------|
G-----------------------------------------------------------|
D-------------------8-------11---10---11------13------8-----|
A----8------10----------------------------------------------|
E-----------------------------------------------------------|

E-----------------------------------------------------------|
B-10-12-13-12-10-10-12--10--8---6--5--6-5-6------10--12--13-|
G-----------------------------------------------------------|
D-----------------------------------------------------------|
A-----------------------------------------------------------|
E-----------------------------------------------------------|

Intro  (2.47-3.01)

Verse1 (3.01-3.18)

Intro  (3.18-3.31)

Chorus (3.32-4.02)

Outro [Plenty of delay/echo](4.02-4.58)
E-----------------------------------------------------------|
B-----------------------------------------------------------|
G-------------------------8-6-5-----x-----------------------|
D--7-----7-9-10-----------8---------x-----------------------|
A--8-----8--------8-----8-------8---x-----------------------|
E-----------------9---4/6-------9---------------------------|

E-----------------------------------------------------------|
B-----------------------------------------------------------|
G-------------------------8-6-5-----------------------------|
D--7----7--9-10-----------8---------------------------------|
A--8----8---------8-8-6/8-------8---8-8-8-8-6-6-------------|
E-----------------9---4/6-------9---------------------------|

E-----------------------------------------------------------|
B---------------------------------------------x-------------|
G-----------------------------------8-6-5-----x-------------|
D--7----7--9-10-----(8-10-11-10)----8---------x-------------|
A--8----8---------8---------------6--------8----------------|
E-----------------9-------------6/4--------9----------------|
            
Submit corrections


        Jamais Vu lessons Hard to play? Try these video lessons and learn fast Jamais Vu lessons
        
↑ Back to top | Tablatures and chords for acoustic guitar and electric guitar, ukulele, drums are parodies/interpretations of the original songs. You may use it for private study, scholarship, research or language learning purposes only