» » »

Dredg - Heart New Shadow Tabs

Artists:  A B C D E F G H I J K L M N O P Q R S T U V W X Y Z # 

Heart New Shadow Tabs

(ver. 1) Click to play this song!
Dredg
 Rating:
4/5 (4 votes)

 Heart New Shadow lessons Tabs too difficult? Try these video lessons and learn fast
 
                
guitar.1(clean)
   *0:01                                                        *0:33
E|-----------------------------------------------------------------
B|-5------5------5-------------5---------5---------5---------5-----
G|-----------------------------------------------------------------
D|---7-6----7-6----7-6-------7--7-6----7--7-6----7--7-6----7--7-6--
A|-----------------------------------------------------------------
E|-----------------------------------------------------------------

guitar.2(chorus/flanger)
                        *0:14                                   *0:33
E|-----------------------------------------------------------------
B|------------------------5~---5~---5~---5~---5~---5~---5~---5~----
G|------------------------6~---7~---6~---7~---6~---7~---6~---7~----
D|----------------------6----7----6----7----6----7----6----7----6/-
A|-----------------------------------------------------------------
E|-----------------------------------------------------------------

guitar.1
     *0:33                                                         *0:53
E|------------------------------------------------------------------------
B|-----------5-----------5---------------------5---------------------5----
G|------------------------------------------------------------------------
D|-(6~)----7--7--6-----7--7-6----------------7--7-6----------------7--7-6-
A|------------------------------------------------------------------------
E|------------------------------------------------------------------------

guitar.2
     *0:33                                                         *0:53
E|------------------------------------------------------------------------
B|------------------------------------------------------------------------
G|------------------------------------------------------------------------
D|-/11~-11\7~-7/11~-11\7~-7\6~-6H7P6-4H6P4-2H4--7\6~-6H7P6-4H6P4-2H4--7-6-
A|------------------------------------------------------------------------
E|------------------------------------------------------------------------

guitar.1
                         *1:06                   *1:16
E|-------------------------------------------------
B|--------5---------5-------------5-----------5----
G|-------------------------------------------------
D|------7--7-6----7--7-6~-------7--7--6-----7--7-6-
A|-------------------------------------------------
E|-------------------------------------------------

guitar.2
                         *1:06                   *1:16
E|-------------------------------------------------
B|---5~---5~---5~---5~-----------------------------
G|---6~---7~---6~---7~-----------------------------
D|-6----7----6----7----6/11~-11\7~-7/11~-11\7~-7\6-
A|-------------------------------------------------
E|-------------------------------------------------

guitar.1
E|------------------------------------------
B|-5------5------5------5------5------5-----
G|------------------------------------------
D|---7-6----7-6----7-6----7-6----7-6----7-6-
A|------------------------------------------
E|------------------------------------------
            
Submit corrections


        Heart New Shadow lessons Hard to play? Try these video lessons and learn fast Heart New Shadow lessons
        
↑ Back to top | Tablatures and chords for acoustic guitar and electric guitar, ukulele, drums are parodies/interpretations of the original songs. You may use it for private study, scholarship, research or language learning purposes only