Home » D » Dream Evil »

Dream Evil - The 7Th Day Tabs

Artists:  A B C D E F G H I J K L M N O P Q R S T U V W X Y Z # 

The 7Th Day Tabs

(ver. 1) Click to play this song!
Dream Evil
[Intro]
Use index finger and pinky for your power chords
D|-------------------------------------------------------------------------------------------------------|
A|-------------------------------------------------------------------------------------------------------|
F|-------------------------------------------------------------------------------------------------------|
C|--------3------5---------6---------3-----------------------------3------5---------6---------3--------5-|
G|--------1------3---------4---------1-----0h1p0-------------------1------3---------4---------1-----3--3-|
D|-3--3-3----3-3----3-3--3----3--3-3----3--------3-1--1-3---3--3-3----3-3----3-3--3----3--3-3----3--1----|
   *  * *    * *    * *  *    *  * *    *        * *  *     *  * *    * *    * *  *    *  * *    *
   |  | |    | |    | |  |    |  | |    |
   -------------    ------    -----------
    ring finger     index        ring

D|--------------------------------------------------------------------------------------------------------|
A|--------------------------------------------------------------------------------------------------------|
F|--------------------------------------------------------------------------------------------------------|
C|---------3------5---------6---------3-----------------------------3------5---------6---------3----------|
G|---------1------3---------4---------1-----0h1p0-------------------1------3---------4---------1-----3--4-|
D|--3--3-3----3-3----3-3--3----3--3-3----3--------3-1--1-3---3--3-3----3-3----3-3--3----3--3-3----3--1--2-|
   *  * *    * *    * *  *    *  * *    *        * *  *     *  * *    * *    * *  *    *  * *    *

[Verse]
D|--------------------------------------------------------------------|
A|--------------------------------------------------------------------|
F|--------------------------------------------------------------------|
C|--------------------3------5---------6---------3--------------------|X2
G|-5-5---3-3----------1------3---------4---------1-----0h1p0----------|
D|-3-3---1-1---3--3-3----3-3----3-3--3----3--3-3----3--------3-1--1-3-|
               *  * *    * *    * *  *    *  * *    *        * *  *

D|--------------------------------------------------------|
A|--------------------------------------------------------|
F|--------------------------------------------------------|
C|--------------5-5---8--7---------------5-5---8--7-------|
G|--5-5---3-3---3-3---6--5---5-5---3-3---3-3---6--5--5--6-|
D|--3-3---1-1----------------3-3---1-1---------------3--4-|

[Chorus]
D|-------------------------------------------------------------|
A|-------------------------------------------------------------|
F|-------------------------------------------------------------|
C|--------5------7---------8-X3 --------5----------------------|X2
G|--------3------5---------6-------3-----2h3p2-----------------|
D|-5--5-5----5-5----5-5--5--5--5-5----5--------5-3--3-5--------|
   *  * *    * *    * *  *       *  * *    *        * *  *
    You can use the open A string as the base note aswell

  I dont know what this part is called
D|----------------------------------------------------------------------------------------------------|
A|----------------------------------------------------------------------------------------------------|
F|----------------------------------------------------------------------------------------------------|
C|-5---79--x--10--x--9--x--7--x--9--x--10--x--9--x--12--10--9--x--10--x--9--x--7--x--9----4----5----7-|X2
G|-3---57--x--8---x--7--x--5--x--7--x--8---x--7--x--10--8---7--x--8---x--7--x--5--x--7----2----3----5-|
D|----------------------------------------------------------------------------------------------------|

D|--------|
A|--------|
F|--------|
C|--5---3-|
G|--3---1-|
D|--------|

[Verse]
D|--------------------------------------------------------------------|
A|--------------------------------------------------------------------|
F|--------------------------------------------------------------------|
C|--------------------3------5---------6---------3--------------------|X2
G|-5-5---3-3----------1------3---------4---------1-----0h1p0----------|
D|-3-3---1-1---3--3-3----3-3----3-3--3----3--3-3----3--------3-1--1-3-|
               *  * *    * *    * *  *    *  * *    *        * *  *

D|--------------------------------------------------------|
A|--------------------------------------------------------|
F|--------------------------------------------------------|
C|--------------5-5---8--7---------------5-5---8--7-------|
G|--5-5---3-3---3-3---6--5---5-5---3-3---3-3---6--5--5--6-|
D|--3-3---1-1----------------3-3---1-1---------------3--4-|

[Chorus]
D|-------------------------------------------------------------|
A|-------------------------------------------------------------|
F|-------------------------------------------------------------|
C|--------5------7---------8-X3 --------5----------------------|X2
G|--------3------5---------6-------3-----2h3p2-----------------|
D|-5--5-5----5-5----5-5--5--5--5-5----5--------5-3--3-5--------|
   *  * *    * *    * *  *       *  * *    *        * *  *

[Solo] (Rhythm)
D|---------------------------------------------------------------------------------------|
A|---------------------------------------------------------------------------------------|
F|---------------------------------------------------------------------------------------|
C|-5---79--x--10--x--9--x--7--x--9-X4 --------7------9---------10-X3 --------7-----------|
G|-3---57--x--8---x--7--x--5--x--7-------5------7---------8--------5-----4h5p4-----------|
D|--------------------------------7--7-7----7-7----7-7--7---7--7-7----7--------7-5--5-7--|
                                            *  * *    * *    * *  *        *  * *    *        * *  *

D|----------------------------------------------|
A|----------------------------------------------|
F|----------------------------------------------|
C|---------7------9---------10-X3 --------------|
G|---------5------7---------8-9--8--7--6--------|
D|--7--7-7----7-7----7-7--7---7--6--5--4--------|
   *  * *    * *    * *  *

[Verse]
D|--------------------------------------------------------------------|
A|--------------------------------------------------------------------|
F|--------------------------------------------------------------------|
C|--------------------3------5---------6---------3--------------------|X2
G|-5-5---3-3----------1------3---------4---------1-----0h1p0----------|
D|-3-3---1-1---3--3-3----3-3----3-3--3----3--3-3----3--------3-1--1-3-|
               *  * *    * *    * *  *    *  * *    *        * *  *

D|--------------------------------------------------------|
A|--------------------------------------------------------|
F|--------------------------------------------------------|
C|--------------5-5---8--7---------------5-5---8--7-------|
G|--5-5---3-3---3-3---6--5---5-5---3-3---3-3---6--5--5--6-|
D|--3-3---1-1----------------3-3---1-1---------------3--4-|

[Outro]
D|-------------------------------------------------------------------------------------------------|
A|-------------------------------------------------------------------------------------------------|
F|-------------------------------------------------------------------------------------------------|
C|-5---79--x--10--x--9--x--7--x--9--x--10--x--9--x--12--10--9--x--10--x--9--x--7--x--9---4---5---7-|X2
G|-3---57--x--8---x--7--x--5--x--7--x--8---x--7--x--10--8---7--x--8---x--7--x--5--x--7---2---3---5-|
D|-------------------------------------------------------------------------------------------------|

D|-----------------------------------------------------------------------------------------------|
A|-----------------------------------------------------------------------------------------------|
F|-----------------------------------------------------------------------------------------------|
C|--9--x--10--x--9--x--7--x--9--x--10--x--9--x--7--x--9----10----9----7----9----4----5----7------|
G|--7--x--8---x--7--x--5--x--7--x--8---x--7--x--5--x--7----8-----7----5----7----2----3----5----2-|
D|---------------------------------------------------------------------------------------------0-|            
Submit corrections

↑ Back to top | Tablatures and chords for acoustic guitar and electric guitar, ukulele, drums are parodies/interpretations of the original songs. You may use it for private study, scholarship, research or language learning purposes only