Home » D » Dream Evil »

Dream Evil - Hmj Tabs

Artists:  A B C D E F G H I J K L M N O P Q R S T U V W X Y Z # 

Hmj Tabs

(ver. 1) Click to play this song!
Dream Evil
 Rating:
4.3/5 (18 votes)
                [Intro]
D|------------------------------------------------------------------------------------|
A|------------------------------------------------------------------------------------|
F|------------------------------------------------------------------------------------|
C|------------------------------------------------------------------------2p0-2-4-5---|
G|-2--2------------------------------------2--2-----------------5p0--6p0------------2-|
D|-0--0--3p0--5p0--7p0--10p0--7p0--5p0--3--0--0--3p0--5p0--7p0----------------------0-|
                              *    *    *                                     * * *

D|  ----------------------------------------------------------------------------------|
A|  ----------------------------------------------------------------------------------|
F|  ----------------------------------------------------------------------------------|
C|  --------------------------------------2-2-----------------5-7-5-------------------|
G|  -2------------------------------------2-2-----------------------7-5-7-5-7-5-------|
D|  -0--3p0--5p0--7p0--10p0--7p0--5p0--3--0-0--3p0--5p0--7p0--------------------7-6-5-|
                           *    *    *                            * * * *

[Verse]
D|-----------------------------------------------------------------------------|
A|-----------------------------------------------------------------------------|
F|-----------------------------------------------------------------------------|
C|-----------------------------------------------------------------------------|X4
G|-2--2-2--2-2--2-2--2-2--2-2--2-2------2--2-----------------------------------|
D|-0--0-0--0-0--0-0--0-0--0-0--0-0--2h3-0--0--3p0--5p0--7p0--10p0--7p0--5p0--3-|
      *    *    *    *    *    *                                   *    *    *

[Bridge]
D|-----------------5---|
A|-----2---4---5---7---|
F|-----2---4---5---7---|
C|-2---2---4---5---7---|
G|-0---0---2---3---5---|
D|-------------------\-|

[Chorus]
D|---------------------------------------------   -------------------------3---3--3/5---5--8--8----10-10-|
A|---------------------------------------------   -------------------------3---3--3/5---5--8--8----10-10-|
F|-5-5---7-7-----------------------------------   -5-5---5-5---7-7---7-7---4---4--4/6---6--9--9----11-11-|
C|-5-5---7-7---/5--------------/5--------------X2 -5-5---5-5---7-7---7-7---5---5--5/7---7--10-10---12-12-|
G|-3-3---5-5------7--7-/5h7--7----7--7-/5h7--7-   -3-3---3-3---5-5---5-5---5---5--5/7---7--10-10---12-12-|
D|---------------------------------------------   -------------------------------------------------------|

[Fill?]
D|----------------------------------------------------------------------------------|
A|----------------------------------------------------------------------------------|
F|----------------------------------------------------------------------------------|
C|--------------------------------------2-2-----------------5-7-5-------------------|
G|-2------------------------------------2-2-----------------------7-5-7-5-7-5-------|
D|-0--3p0--5p0--7p0--10p0--7p0--5p0--3--0-0--3p0--5p0--7p0--------------------7-6-5-|
                           *    *    *                            * * * *

[Verse]
D|-----------------------------------------------------------------------------|
A|-----------------------------------------------------------------------------|
F|-----------------------------------------------------------------------------|
C|-----------------------------------------------------------------------------|X4
G|-2--2-2--2-2--2-2--2-2--2-2--2-2------2--2-----------------------------------|
D|-0--0-0--0-0--0-0--0-0--0-0--0-0--2h3-0--0--3p0--5p0--7p0--10p0--7p0--5p0--3-|
      *    *    *    *    *    *                                   *    *    *

[Bridge]
D|-----------------5---|
A|-----2---4---5---7---|
F|-----2---4---5---7---|
C|-2---2---4---5---7---|
G|-0---0---2---3---5---|
D|-------------------\-|

[Chorus]
D|---------------------------------------------   -------------------------3---3--3/5---5--8--8----10-10-|
A|---------------------------------------------   -------------------------3---3--3/5---5--8--8----10-10-|
F|-5-5---7-7-----------------------------------   -5-5---5-5---7-7---7-7---4---4--4/6---6--9--9----11-11-|
C|-5-5---7-7---/5--------------/5--------------X2 -5-5---5-5---7-7---7-7---5---5--5/7---7--10-10---12-12-|
G|-3-3---5-5------7--7-/5h7--7----7--7-/5h7--7-   -3-3---3-3---5-5---5-5---5---5--5/7---7--10-10---12-12-|
D|---------------------------------------------   -------------------------------------------------------|

[Solo (Rhythm)]
D|----------------------------------------------------------------------------|
A|----------------------------------------------------------------------------|
F|----------------------------------------------------------------------------|
C|----------------------------------------------------------------------------|
G|-4--4-4--4-4--4-4--4-4--4-4--4-------4--4-4--4-4--4-4--4-4--4-4--4-2/3~\2p0-|
D|-2--2-2--2-2--2-2--2-2--2-2--2-5p2p0-2--2-2--2-2--2-2--2-2--2-2--2----------|
      * *  * *  * *  * *  * *  *          * *  * *  * *  * *  * *  *


D|  ---------------------------------------------------------------------------|
A|  ---------------------------------------------------------------------------|
F|  ---------------------------------------------------------------------------|
C|  ---------------------------------------------------------------------------|
G|  -4--4-4--4-4--4-4--4-4--4-4--4-------4--4-4--4-4--4-4--4--4----------------|
D|  -2--2-2--2-2--2-2--2-2--2-2--2-5p2p0-2--2-2--2-2--2-2--2--2--0--1--2--3--4-|
      * *  * *  * *  * *  * *  *          * *  * *  * *  *


D|  --------------------------------------------------------------------------|
A|  --------------------------------------------------------------------------|
F|  --------------------------------------------------------------------------|
C|  -2--2-2--2-2--2-2--2-2--2-2--2-------2--2-2--2-2--2-2--2-2--2-2--2-2--2-2-|
G|  -0--0-0--0-0--0-0--0-0--0-0--0-3p0---0--0-0--0-0--0-0--0-0--0-0--0-0--0-0-|
D|  -----------------------------------3--------------------------------------|
      * *  * *  * *  * *  * *  *     *    * *  * *  * *  * *  * *  * *  * *


D|  --------------------------------------------------------------|
A|  ------------------------------------------------1-----------3-|
F|  ---------------------------------------------0-----------2----|
C|  -4--0-4--0-4--0-4--0-4--0-4--0-4--0-4-----2-----------4-------|
G|  -2--2-2--2-2--2-2--2-2--2-2--2-2--2-2--3-----------5----------|
D|  --------------------------------------------------------------|
      * *  * *  * *  * *  * *  * *  * *             |
                                      This is the best i can make out


[Chorus/Outro]
D|---------------------------------------------   -------------------------3---3--3/5---5--8--8----10-10-|
A|---------------------------------------------   -------------------------3---3--3/5---5--8--8----10-10-|
F|-5-5---7-7-----------------------------------   -5-5---5-5---7-7---7-7---4---4--4/6---6--9--9----11-11-|
C|-5-5---7-7---/5--------------/5--------------X2 -5-5---5-5---7-7---7-7---5---5--5/7---7--10-10---12-12-|
G|-3-3---5-5------7--7-/5h7--7----7--7-/5h7--7-   -3-3---3-3---5-5---5-5---5---5--5/7---7--10-10---12-12-|
D|---------------------------------------------   -------------------------------------------------------|



D| -8--8----10-10---8--8---8--8----10-10--10-10---8--8---8--8----10--10---10--10---12--12\-|
A| -8--8----10-10---8--8---8--8----10-10--10-10---8--8---8--8----10--10---10--10---12--12\-|
F| -9--9----11-11---9--9---9--9----11-11--11-11---9--9---9--9----11--11---11--11---13--13\-|
C| -10-10---12-12---10-10--10-10---12-12--12-12---10-10--10-10---12--12---12--12---14--14\-|
G| -10-10---12-12---10-10--10-10---12-12--12-12---10-10--10-10---12--12---12--12---14--14\-|
D| ----------------------------------------------------------------------------------------|            
Submit corrections

↑ Back to top | Tablatures and chords for acoustic guitar and electric guitar, ukulele, drums are parodies/interpretations of the original songs. You may use it for private study, scholarship, research or language learning purposes only