Home » D » Dream Evil »

Dream Evil - Blind Evil Tabs

Artists:  A B C D E F G H I J K L M N O P Q R S T U V W X Y Z # 

Blind Evil Tabs

(ver. 1) Click to play this song!
Dream Evil
 Rating:
4.4/5 (8 votes)
                [Intro/Verse]
D|------------------------------------------------------------------|
A|--------------------------10-8------------------------------------|
F|--------------------------9--7------------------------------------|
C|-7--9-----9-------7-------9--7---5--5-----------------------------|-|
G|-5--7-----7-------5-------7--5---3--3-3-3-3-3-3-3-3-3-2-0-----5-2-| |
D|------0-0---0-0-0---0-0-0---------------------------------3-2---0-| |
        * *   * * *   * * *             * * * * * * * *               |
                                                                      |x4
D|------------------------------------------------------------------| |
A|-----------------------10-8---------------------------------------| |
F|-----------------------9--7---------------------------------------| |
C|-9-----9-------7-------9--7---10--10-----10-------10---10---18-12-|-|
G|-7-----7-------5-------7--5---8---8--8-8-8--8-8-8-8--8-8--8-8--10-|
D|---0-0---0-0-0---0-0-0--------------------------------------------|
     * *   * * *   * * *               * *    * * *    *    *

[Bridge]
D|--------3-----------------------------------------------------------|
A|--------3-----------------------------------------------------------|
F|--------0-----------------------------------------------------------|
C|-5---2--0-----------------------------------------------------------|
G|-3---0--x--------------7--------------8--------------7----7/8\7---5-|
D|--------3--0-0-0-0-0-0----0-0-0-0-0-0----0-0-0-0-0-0----0-7/8\7---5-|
             * * * * * *    * * * * * *    * * * * * *    *
D|--------3----------------------------------------------------|
A|--------3----------------------------------------------------|
F|--------0----------------------------------------------------|
C|-5---2--0--4-----4-----4-----4-----4-5-4-2-4-----4-----4---4-|
G|-3---0--x--2-2-2-2-2-2-2-2-2-2-2-2-2-3-2-0-2-2-2-2-2-2-2-2-2-|
D|--------3----------------------------------------------------|
               * *   * *   * *   * *           * *   * *   *
[Chorus]
D|-------------------------------------------------------------------|
A|-------------------------------------------------------------------|
F|-------------------------------------------------------------------|
C|--------4-5------9-----7---5---9---7-----7-----7-----7-------------|
G|-5--5---2-3---2--7-----5---3---7---5-5-5-5-5-5-5-5-5-5-5-5-7-5-----|
D|-3--3---------0------0-----------------------------------------7-5-|
                                       * *   * *   * *   * *
D|-----------------------------------------------------------|
A|-----------------------------------------------------------|
F|-----------------------------------------------------------|
C|--------4-5------9-----7---5---2---4-----4-----4-----4-----|
G|-5--5---2-3---2--7-----5---3---0---2-2-2-2-2-2-2-2-2-2-2-2-|
D|-3--3---------0------0-------------------------------------|
                                       * *   * *   * *   * *
[Fill/Verse]
D|------------------------------------------------------------------|
A|--------------------------10-8------------------------------------|
F|--------------------------9--7------------------------------------|
C|-7--9-----9-------7-------9--7---5--5-----------------------------|-|
G|-5--7-----7-------5-------7--5---3--3-3-3-3-3-3-3-3-3-2-0-----5-2-| |
D|------0-0---0-0-0---0-0-0---------------------------------3-2---0-| |
        * *   * * *   * * *             * * * * * * * * * *           |
                                                                      |x3
D|------------------------------------------------------------------| |
A|-----------------------10-8---------------------------------------| | 
F|-----------------------9--7---------------------------------------| |
C|-9-----9-------7-------9--7---10--10-----10-------10---10---18-12-|-|
G|-7-----7-------5-------7--5---8---8--8-8-8--8-8-8-8--8-8--8-8--10-|
D|---0-0---0-0-0---0-0-0--------------------------------------------|
     * *   * * *   * * *               * *    * * *    *    *

[Bridge]
D|--------3-----------------------------------------------------------|
A|--------3-----------------------------------------------------------|
F|--------0-----------------------------------------------------------|
C|-5---2--0-----------------------------------------------------------|
G|-3---0--x--------------7--------------8--------------7----7/8\7---5-|
D|--------3--0-0-0-0-0-0----0-0-0-0-0-0----0-0-0-0-0-0----0-7/8\7---5-|
             * * * * * *    * * * * * *    * * * * * *    *

D|--------3----------------------------------------------------|
A|--------3----------------------------------------------------|
F|--------0----------------------------------------------------|
C|-5---2--0--4-----4-----4-----4-----4-5-4-2-4-----4-----4---4-|
G|-3---0--x--2-2-2-2-2-2-2-2-2-2-2-2-2-3-2-0-2-2-2-2-2-2-2-2-2-|
D|-3------3----------------------------------------------------|
               * *   * *   * *   * *           * *   * *   *
[Chorus]
D|-------------------------------------------------------------------|
A|-------------------------------------------------------------------|
F|-------------------------------------------------------------------|
C|--------4-5------9-----7---5---9---7-----7-----7-----7-------------|
G|-5--5---2-3---2--7-----5---3---7---5-5-5-5-5-5-5-5-5-5-5-5-7-5-----|
D|-3--3---------0------0-----------------------------------------7-5-|
                                       * *   * *   * *   * *

D|-----------------------------------------------------|
A|-----------------------------------------------------|
F|-----------------------------------------------------|
C|--------4-5------9-----7---5---2---4-----4-----4---4-|
G|-5--5---2-3---2--7-----5---3---0---2-2-2-2-2-2-2-2-2-|
D|-3--3---------0------0-------------------------------|
                                       * *   * *   *

[Solo] Rhythm
D|----------------------------------------------------------------|
A|----------------------------------------------------------------|
F|----------------------------------------------------------------|
C|-9----9-----9---10----10-----10---7----7-----7---5----5-----5---|
G|-7--7-7-7-7-7-7-7---7-7--7-7-7--7-5--5-5-5-5-5-5-5--5-5-5-5-5-5-|
D|----------------------------------------------------------------|
      *   * *   *     *    * *    *    *   * *   *    *   * *   *

D|--------------------------------------------------------------|
A|--------------------------------------------------------------|
F|--------------------------------------------------------------|
C|-9----9-----9---10----10-----10-------------------------------|
G|-7--7-7-7-7-7-7-7---7-7--7-7-7--7-7----7----7---5----5----5---|
D|----------------------------------5--5-5--5-5-5-3--3-3--3-3-3-|
      *   * *   *     *    * *    *    *    *   *    *    *   *

D|----------------------------------------------------------------|
A|----------------------------------------------------------------|
F|----------------------------------------------------------------|
C|-9----9-----9---10----10-----10---7----7-----7---5----5-----5---|
G|-7--7-7-7-7-7-7-7---7-7--7-7-7--7-5--5-5-5-5-5-5-5--5-5-5-5-5-5-|
D|----------------------------------------------------------------|
      *   * *   *     *    * *    *    *   * *   *    *   * *   *
D|----------------------------------------|
A|----------------------------------------|
F|----------------------------------------|
C|-9----9-----9---10----10-----10---------|
G|-7--7-7-7-7-7-7-7---7-7--7-7-7--7-7---5-|
D|----------------------------------5---3-|
      *   * *   *     *    * *    *
[Solo] Lead (last part)
D|----------------19----15h17-14h17p14----14----------------------------14-17p14-|
A|----17----19-------------------------15----15----15----------------15----------|
F|-16----16----16----16-------------------------14----14----------14-------------|
C|-------------------------------------------------------16----16----------------|
G|----------------------------------------------------------17-------------------|
D|-------------------------------------------------------------------------------|

D|----------14-17p14-19p15----------15-19p15----------15-20p15-19p15-|
A|-15----15----------------17----17----------17----17----------------|
F|----14----------------------16----------------16-------------------|
C|-------------------------------------------------------------------|
G|-------------------------------------------------------------------|
D|-------------------------------------------------------------------|

D|----------15-19p15----------15-19p15----------15-|
A|-17----17----------17----17----------17----17----|
F|----16----------------16----------------16-------|
C|-------------------------------------------------|
G|-------------------------------------------------|
D|-------------------------------------------------|

D|-20-19-17-15--19-17-15-14--17-15-14-12--15-14-12-10--14-12-10-9--12-10-9-7-|
A|---------------------------------------------------------------------------|
F|---------------------------------------------------------------------------|
C|---------------------------------------------------------------------------|
G|---------------------------------------------------------------------------|
D|---------------------------------------------------------------------------|

D|-10-9-7-5--9-7-5-4------|
A|-------------------/13~-|
F|------------------------|
C|------------------------|
G|------------------------|
D|------------------------|

[Bridge]
D|--------3-----------------------------------------------------------|
A|--------3-----------------------------------------------------------|
F|--------0-----------------------------------------------------------|
C|-5---2--0-----------------------------------------------------------|
G|-3---0--x--------------7--------------8--------------7----7/8\7---5-|
D|--------3--0-0-0-0-0-0----0-0-0-0-0-0----0-0-0-0-0-0----0-7/8\7---5-|
             * * * * * *    * * * * * *    * * * * * *    *
D|--------3----------------------------------------------------|
A|--------3----------------------------------------------------|
F|--------0----------------------------------------------------|
C|-5---2--0--4-----4-----4-----4-----4-5-4-2-4-----4-----4---4-|
G|-3---0--x--2-2-2-2-2-2-2-2-2-2-2-2-2-3-2-0-2-2-2-2-2-2-2-2-2-|
D|-3------3----------------------------------------------------|
               * *   * *   * *   * *           * *   * *   *
[Chorus]
D|-------------------------------------------------------------------|
A|-------------------------------------------------------------------|
F|-------------------------------------------------------------------|
C|--------4-5------9-----7---5---9---7-----7-----7-----7-------------|
G|-5--5---2-3---2--7-----5---3---7---5-5-5-5-5-5-5-5-5-5-5-5-7-5-----|
D|-3--3---------0------0-----------------------------------------7-5-|
                                       * *   * *   * *   * *
D|------------------------------------------------------------------------------------|
A|------------------------------------------------------------------------------------|
F|------------------------------------------------------------------------------------|
C|--------4-5------9-----7---5---2---4-----4-----4---4--------------------------------|
G|-5--5---2-3---2--7-----5---3---0---2-2-2-2-2-2-2-2-2-2-2-2-2-2-2-2-2-2-2-2-2-2-2-2-2|
D|-3--3---------0------0--------------------------------------------------------------|
                                       * *   * *   *   * * * * * * * * * * * * * * * *
D|-------------------------------------------------------------------|
A|-------------------------------------------------------------------|
F|-------------------------------------------------------------------|
C|--------4-5------9-----7---5---9---7-----7-----7-----7-------------|
G|-5--5---2-3---2--7-----5---3---7---5-5-5-5-5-5-5-5-5-5-5-5-7-5-----|
D|-3--3---------0------0-----------------------------------------7-5-|
                                       * *   * *   * *   * *
D|---------------------------------------------------------------------|
A|---------------------------------------------------------------------|
F|---------------------------------------------------------------------|
C|--------4-5------9-----7---5---2---5-4-2--7-5-4--9-7-5--12-11-7--9-9-|
G|-5--5---2-3---2--7-----5---3---0---3-2-0--5-3-2--7-5-3--10-9--5--7-7-|
D|-3--3---------0------0-----------------------------------------------|            
Submit corrections

↑ Back to top | Tablatures and chords for acoustic guitar and electric guitar, ukulele, drums are parodies/interpretations of the original songs. You may use it for private study, scholarship, research or language learning purposes only