» » »

Dover - She Will Tabs

Artists:  A B C D E F G H I J K L M N O P Q R S T U V W X Y Z # 

She Will Tabs

(ver. 1) Click to play this song!
Dover
 Rating:
4/5 (4 votes)

 She Will lessons Tabs too difficult? Try these video lessons and learn fast
 
                Tabulado por Crisman


En esta cancion Amparo empieza metiendole disotrsion a la guitarra y 
dejando k se acople con el ampli. 

Luego entra Jesus haciendo el tipico ritmo cn 
la bateria: 

(charles seguido) Bombo - caja - bombo bombo - caja - bombo - caja -bombo bomo...

Antes de k entre Alvaro, Amparo deja de hacer k se empalme la guitarra haciendo esto

e--------------------------
B---------0----------------
G--------0-----------------
D-------0------------------
A--------------------------
E--------------------------

Luego entra Alvaro cn el bajo haciendo esto: 

G--------------------------------------------------------
D--------------------------------------------------------
A--------------------------------------------------------
E-----5-5-5-5-5-5-5-5--0-0-0-0-0-0-0-0-------------------

Luego sigue Amparo  al cabo de dos veces el Riff del bajo y Cris canta "she said"
    A          E           
e-------------------------
B-------------------------
G-------------------------   
D---7----------2----------
A---7----------2----------
E---5----------0----------

(las nota se dejan sonar hast k el bajo cambie de nota)


 las notas del verso se tocan una vez y se dejan sonando y en el estrivillo son seguidas

A                 E                    A 
Now the time is gone and her mind is clear
 E                   A                  E             A
she's gotta wait, she's the only one that is on her side
E seguidas->      A                    C          A (palm muted)
Nevermind!          and this is getting yeah too high

A                C             A                  C
but she won't change her mind, she'll go away
         A        C
yeah,yeah, she will 
         A        C
yeah,yeah, she will
         A        C   A    C    A    C    A    C     A (dejar sonando)
yeah,yeah, she will yeah, yeye yeah yaya yeah ah

    
    E  A  D  G  B  e

A   5  7  7
E   0  2  2
C      3  5  5


She will para bajo (pa k no se kejen los bajistas ;)=

Verso: 
            A                 E
G--------------------------------------------------------
D--------------------------------------------------------
A--------------------------------------------------------
E-----5-5-5-5-5-5-5-5--0-0-0-0-0-0-0-0-------------------

Estrivillo
            A                 C
G--------------------------------------------------------
D--------------------------------------------------------
A--------------------------------------------------------
E-----5-5-5-5-5-5-5-5--8-8-8-8-8-8-8-8-------------------



A! se me olvidava, la guitarra de Cris. Creo yo k cris en esta cancion solo
canta y si toca hace lo mismo k Amparo pero en acordes

By Crisman
            
Submit corrections


        She Will lessons Hard to play? Try these video lessons and learn fast She Will lessons
        
↑ Back to top | Tablatures and chords for acoustic guitar and electric guitar, ukulele, drums are parodies/interpretations of the original songs. You may use it for private study, scholarship, research or language learning purposes only