Home » D » Dover »

Dover - La Monja Mellada Bass

Artists:  A B C D E F G H I J K L M N O P Q R S T U V W X Y Z # 

La Monja Mellada Bass

(ver. 1) Click to play this song!
Dover
 Rating:
4/5 (4 votes)
                Standard tunning


Main Riff x4
C------------------------
D------------------------
A----------2-2-2-2-2-2-2-
E--2-3-2-3---------------


Riff 1 x4 (00:10)
C-----------------------------------
D------------------0-0-0-0-0-0-0-0--
A--2-2-2-2-2-2-2-2------------------
E-----------------------------------


Riff 2 x4 (00:19)
C------------------------------------------------------------------
D------------------5-5-5-5-5-5-5-5-0-0-0-0-0-0-0-0-4-4-4-4-4-4-4-4-
A--2-2-2-2-2-2-2-2-------------------------------------------------
E------------------------------------------------------------------


Main Riff again x4 (00:37)


Riff 3 x4 (00:45)
C-------------------------------
D------------------------5--5---
A--2-2-2-2-2-2-2-2-2-2-2------4-
E-------------------------------


Main Riff again x4 (00:54)
Riff 1 again x4 (01:02)
Riff 2 again x4 (01:10)
Main Riff x2 (01:28)

Variation for the Main Riff to end the song x4 (01:33)
C--------------------------------
D--5-4-0--2-0--------------------
A-------------2-0--2-2-2-2-2-2-2-
E--------------------------------
            
Submit corrections

↑ Back to top | Tablatures and chords for acoustic guitar and electric guitar, ukulele, drums are parodies/interpretations of the original songs. You may use it for private study, scholarship, research or language learning purposes only