» » »

Dover - Her Bed Star Tabs

Artists:  A B C D E F G H I J K L M N O P Q R S T U V W X Y Z # 

Her Bed Star Tabs

(ver. 1) Click to play this song!
Dover
 Rating:
4/5 (4 votes)

 Her Bed Star lessons Tabs too difficult? Try these video lessons and learn fast
 
                ------------
        		HER BED STAR
		------------
  		   DOVER




MAIN PICK

used chords are Bm and Am:

	     Bm      Am
	e-----2-------0------
	b-----3-------1------
	g-----4-------2------
	d-----4-------2------
	a-----2-------0------
	E-----2-------x------


    Bm     *            Am     Bm
e------------------------------------------------------
b-----3----2---2---------------------------------------
g------------------4------2----4-----------------------
d---4----4---4---4---4--2---2--4-----------------------
a------------------------------------------------------
E------------------------------------------------------

NOTE: Where the * get out the finger on 3rd fret in the Bm chord





VERSE

used chords: B, A, G

	   B    A    G
	e---------------
	b---------------
	g---------------
	d--9----7----5--
	a--9----7----5--
	E--7----5----3--


                  B  A    G             A
How Can You Sleep?         You're always open

B                 A  G                 A     B    B (this last chord Palm Muted)
How Can You Sleep?       You're always open, open

B                 A  G                 A   
How Can You Sleep?       You're always open

B                 A  G                 A     B    B (this last chord Palm Muted)
How Can You Sleep?       You're always open, open





CHORUS

the chords are: A, G, B (the same in the verse) and F#

            F#
	e-------
	b-------
	g-------
	d---4----
	a---4----
	E---2----


B         G     B         G
Come back here, Come back here

G                F#	        B	      A   	  B
Someday you will pay for what you made, you took her away

  A	   B	A       B
I wanna see her face, to see her face,

  A	    B 	A        B
I wanna make her back, to make her bed







RIFF

    B		 A    G      B      A
e----------------------------------------
b----------------------------------------
g----------------------------------------
d---9-9-9-9-9-9--7-7---------------------
a---9-9-9-9-9-9--7-7--5-5-5--9-9--7-7----
E---7-7-7-7-7-7--5-5--3-3-3--7-7--5-5----






FINAL RIFF

   B    A     G     A     B
e----------------------------------------
b----------------------------------------
g----------------------------------------
d--9-9--7-7---5-5---7-7---9--------------
a--9-9--7-7---5-5---7-7---9--------------
E--7-7--5-5---3-3---5-5---7--------------



The structure of the whole song:

PICK
VERSE
CHORUS
RIFF (x4)
VERSE
CHORUS
RIFF (x4)
CHORUS
VERSE (Only 2 first phrases)
FINAL RIFF

The song is played with distortion, except in the main picking


Well, this was all, I think it's alright
¡DfOreVER!
            
Submit corrections


        Her Bed Star lessons Hard to play? Try these video lessons and learn fast Her Bed Star lessons
        
↑ Back to top | Tablatures and chords for acoustic guitar and electric guitar, ukulele, drums are parodies/interpretations of the original songs. You may use it for private study, scholarship, research or language learning purposes only