» » »

Dover - Flashback Tabs

Artists:  A B C D E F G H I J K L M N O P Q R S T U V W X Y Z # 

Flashback Tabs

(ver. 1) Click to play this song!
Dover
 Rating:
4/5 (4 votes)

 Flashback lessons Tabs too difficult? Try these video lessons and learn fast
 
                Afinacion: Standar (E-A-D-G-B-e)
Tabulado por: Crisman
Fecha: 1-9-03

xxxxxxxxxxxxxxxxxxxxxxxxxxxxxxxxxxxxxxxxxxxxxxxxxxxxxxxxxxxxxxxxxxxxxxxxxxxxxxxxxxxxx

Riffs de Amparo:
Nota: los riffs estan marcados por "

Riff1 (distorsion)
  Em          A3                  
e------------------------
B------------------------
G-----------------2------
D------2--------2---2----
A----2---2----0----------
E--0---------------------

Riff2 (distorsion)

e----------------------------------------
B----------------------------------------
G----------------------5-5-5---7-7-7-7-7-
D----------------------5-5-5---7-7-7-7-7- x4
A--2-2-2-2---7-7-7-7---3-3-3---5-5-5-5-5-
E--0-0-0-0---5-5-5-5---------------------
   * * * *   * * * * 

Riffs de Cristina: 
Nota: Amparo va repitiendo la intro (Em - A3 - C - D)
Y Cristina canta (you really need another flashback!)

Riff3 (distorsion)
   Em      A3            C      D            Em      A3            C         
e--12-12-9-12-12-12-12-9-12-12-9-12-12-12-12-9-12-12-9-12-12-12-12-9-12-12-
B--------------------------------------------------------------------------
G--------------------------------------------------------------------------
D-------------------------------------------------------------------------- 
A--------------------------------------------------------------------------
E--------------------------------------------------------------------------
     
     D             Em      A3            C          
e--9-12-12-12-12-9-12-12-9-12-12-12-12-9-12-12-----------------------------
B--------------------------------------------------------------------------
G--------------------------------------------------------------------------
D--------------------------------------------------------------------------
A--------------------------------------------------------------------------
E--------------------------------------------------------------------------

xxxxxxxxxxxxxxxxxxxxxxxxxxxxxxxxxxxxxxxxxxxxxxxxxxxxxxxxxxxxxxxxxxxxxxxxxxxxxxxxxxxxx
                                xxxxxxxxxxxxxxxxxxxxxxx


Intro: Em - A3 - C - D - Em - A3 - C

                        "Em - A3" (Riff1)
Time will prove
C             D         "Em - A3" (Riff1)
I am not like you
C             D         "Em - A3" (Riff1)    
ten big bags of pain
C             D         "Em - A3" (Riff1)
that's all I got from you
C
                            "Em - A3 (Riff2)
I never pay my rent
C              D"           "Em - A3 (Riff2)
that's what I learned to do
C           D"              "Em - A3 (Riff2)
tv is not working today 
C            D"             "Em - A3 - C - D" (Riff2)
call me when it gets blue              eee eee

Em     C
Love aches!
A3                     D
I need you just to tell me what to do!
Em     C 
it aches!
A3           D          Em   C
I can't stand the pain
A3                     D
I need you just to tell me what to do!
Em     C 
it aches!
A3           D          Em   C
I can't stand the pain
A3           D           "Em - A3 - C - D" (Riff3)
you really need another flashback!
C            D            Em - A3 - C - D - Em - A3 - C 
you really need another flashback!

                        "Em - A3" (Riff1)
If I knew
C             D         "Em - A3" (Riff1)
what you were gonna do...
C             D         "Em - A3" (Riff1)
ten big bags of pain
C             D         "Em - A3" (Riff1)
that's all I got from you

                            "Em - A3 (Riff2)
I never call my friends 
C              D"           "Em - A3 (Riff2)
that's what I learned to do
C              D"           "Em - A3 (Riff2)
tv is not working today
C              D"           "Em - A3 - C - D" (Riff2)
call me when it gets blue              eee eee


love aches!
I need you just to tell me what to do!
it aches!
I can't stand the pain
you really need another flashback!
love aches!
I need you just to tell me what to do!
it aches!
I can't stand the pain
you really need another flashback!

          Em         A3
Could you close the door
    C         D
my heart is frozen
      Em      A3
I just got it new
        C           D
they told me to keep it covered
  Em       A3      C        D
I didn't know that you were aware
Em*              A3*
but I told you twice
C                D
just tell me who I am!

love aches!
I need you just to tell me what to do!
it aches!
I can't stand the pain
I need you just to tell me what to do!
it aches!
I can't stand the pain
I need you just to tell me what to do!
it aches!
I can't stand the pain
you really need another flashback!
you really need another flashback!

D       Em...
Stay, Stay...

xxxxxxxxxxxxxxxxxxxxxxxxxxxxxxxxxxxxxxxxxxxxxxxxxxxxxxxxxxxxxxxxxxxxxxxxxxxxxxxxxxxxx

Acordes de Cristina (sin Cejilla) en el verso:

  Em    A3    C    D   
--0-----0-----0----2----
--0-----0-----1----3----
--0-----2-----0----2----
--2-----2-----2----0----
--2-----0-----3----0----
--0-----0-----0----0----

Acordes de Cristina (sin cejilla) en el estrivillo:

  Em   A3    C   D
-----------------2------
-------0-----5---3------
--0----2-----5---2------
--2----2-----5---0------
--2----0-----3----------
--0---------------------


Acordes de Amparo en el verso/estrivillo/puente: 

  Em   A3   C    D
----------------------
----------------------
------------5----7----
--2----7----5----7----
--2----7----3----5----
--0----5--------------

xxxxxxxxxxxxxxxxxxxxxxxxxxxxxxxxxxxxxxxxxxxxxxxxxxxxxxxxxxxxxxxxxxxxxxxxxxxxxxxxxxxxx
Esto es todo! Disfrutadla porke me he estado un wen rato haciendo las tabs y tal ;)

Tabulado por Cristian Ferrer

Cris :P
            
Submit corrections


        Flashback lessons Hard to play? Try these video lessons and learn fast Flashback lessons
        
↑ Back to top | Tablatures and chords for acoustic guitar and electric guitar, ukulele, drums are parodies/interpretations of the original songs. You may use it for private study, scholarship, research or language learning purposes only