» » »

Dover - Astroman Tabs

Artists:  A B C D E F G H I J K L M N O P Q R S T U V W X Y Z # 

Astroman Tabs

(ver. 1) Click to play this song!
Dover
 Rating:
4/5 (4 votes)

 Astroman lessons Tabs too difficult? Try these video lessons and learn fast
 
                -----------
                                             DOVER
                                            ASTROMAN
                                          -----------

RIFF1:

e-----------------------
b-----------------------
g-------5h7-------------  x8
d---7--------7p5-5-5/7--
a---7-------------------
E---5-------------------

RIFF 2:

e-----------------------
b-----------------------
g-----------------------  x8
d---7-7-7-7---9--10----
a---7-7-7-7---9--10----
E---5-5-5-5---7--8-----



VERSE:

e-------------------------------------------------------------------------------------------------------
b-------------------------------------------------------------------------------------------------------
g-------------------------------------------------------------------------------------------------------
d---7------------5--7--10-7--------5-----7---10----7-----------------5---7----10--7----------5--7---10--
a---7--3------5^-5--7--10-7--3-5^--5-----7---10----7------3------5^--5---7----10--7----3-5^--5--7---10--
E---5------------3--5--8--5--------3-----5---8-----5-----------------3---5----8---5----------3--5---8---
       I will never be so strong,  I'll fake it       The more I got the more I   lost,      it hit me


        Palm Mute                   Palm Mute                       Palm Mute
     _______________            ___________________        ___________________________
e---/---------------\----------/-------------------\------/---------------------------\--------
b----------------------------------------------------------------------------------------------
g----------------------------------------------------------------------------------------------
d---7-7-7-7-7-7-7-7-7---10-----7-7-7-7-7-7-7-7-7-7--10----7-7-7-7-7-7-7-7-7-7-7-7-7-7-7---10---
a---7-7-7-7-7-7-7-7-7---10-----7-7-7-7-7-7-7-7-7-7--10----7-7-7-7-7-7-7-7-7-7-7-7-7-7-7---10---
E---5-5-5-5-5-5-5-5-5---8------5-5-5-5-5-5-5-5-5-5--8-----5-5-5-5-5-5-5-5-5-5-5-5-5-5-5---8----
    I want to like L.A. And    I want L.A. to like me,    But i've been digging holes for days



CHORUS:

chords:

    A   G   F   C
e--------------------
b--------------------
g---------------5----
d---7---5---3---5----
a---7---5---3---3----
E---5---3---1--------

A       G              F          C  G  A           G           F              C    G
  Evil astroman will take the earth,      Now you better go to sleep,      For your sake




SOLO:

e-----------------------------------------------------------------------------------------
b--10~--10~-------------------------------------------------------------------------------
g-------------9h11--12\11--9~------------9h11--12\11--9~---------------9--9h11-12\11--9~--
d----------------------------10~--7~---------------------7/10--10/14----------------------
a-----------------------------------------------------------------------------------------
E-----------------------------------------------------------------------------------------

e-------------------------------------
b---8-8/10~--10/13~--13/15~--15/17~---
g-------------------------------------
d-------------------------------------
a-------------------------------------
E-------------------------------------


Structure:

RIFF1 (Intro)
RIFF2
VERSE
RIFF2
VERSE (lyrics change, but it's the same rythm)
CHORUS
RIFF1
RIFF2
VERSE
CHORUS
SOLO
CHORUS
RIFF1

The song ends playing the first chord of riff1




Well, this was all, I think it's alright
¡DfOreVER!
            
Submit corrections


        Astroman lessons Hard to play? Try these video lessons and learn fast Astroman lessons
        
↑ Back to top | Tablatures and chords for acoustic guitar and electric guitar, ukulele, drums are parodies/interpretations of the original songs. You may use it for private study, scholarship, research or language learning purposes only