» » »

Dover - As I Said Tabs

Artists:  A B C D E F G H I J K L M N O P Q R S T U V W X Y Z # 

As I Said Tabs

(ver. 1) Click to play this song!
Dover
 Rating:
4/5 (4 votes)

 As I Said lessons Tabs too difficult? Try these video lessons and learn fast
 
                Tuning: Standard (E A D G B E)


INTRO & VERSE

E|----------------------------------------------------------||
B|----------------------------------------------------------||
G|---5-5---7-7---------------------7-7----------------------||
D|---5-5---7-7---7-7---9-9---5-5---7-7---7-7---4-4----------||
A|---3-3---5-5---7-7---9-9---5-5---5-5---7-7---4-2----------||
E|---------------5-5---7-7---3-3---------5-5---2-2----------||


CHOURS


E|----------------------------------------------||
B|----------------------------------------------||
G|---4-4---5-5---7-7---8-8----------------------||
D|---4-4---5-5---7-7---8-8----------------------||
A|---2-2---3-3---5-5---6-6----------------------||
E|----------------------------------------------||
            
Submit corrections


        As I Said lessons Hard to play? Try these video lessons and learn fast As I Said lessons
        
↑ Back to top | Tablatures and chords for acoustic guitar and electric guitar, ukulele, drums are parodies/interpretations of the original songs. You may use it for private study, scholarship, research or language learning purposes only