» » »

Doobie Brothers - Take Me In Your Arms Tabs

Artists:  A B C D E F G H I J K L M N O P Q R S T U V W X Y Z # 

Take Me In Your Arms Tabs

(ver. 1) Click to play this song!
Doobie Brothers
 Rating:
4.2/5 (5 votes)

 Take Me In Your Arms lessons Tabs too difficult? Try these video lessons and learn fast
 
                Doobie Brothers - "Take Me in Your Arms (Rock Me a Little While)"
standard tuning

Please rate this so others will check it out too.

Intro/Bridge
   Em7
E|-7-----7--7--7-------|-7-----7--7--7-------|-7--------7--7--7--------|
B|-8-----8--8--8-------|-8-----8--8--8-------|-7--------7--7--7--------|
G|-7-----7--7--7-------|-7-----7--7--7-------|-7--------7--7--7--------|
D|-9-----9--9--9-------|-9-----9--9--9-------|-7--------7--7--7--------|
A|----x----------------|----x----------------|-------x-----------x--x--|
E|----x------------0---|----x------------0---|-------x-----------x--x--|

   Bm
E|-7--------7--7--7-------|-7-----7--7--7-------|-7-----7--7--7--------|
B|-7--------7--7--7-------|-8-----8--8--8-------|-8-----8--8--8--------|
G|-7--------7--7--7-------|-7-----7--7--7-------|-7-----7--7--7--------|
D|-7--------7--7--7-------|-9-----9--9--9-------|-9-----9--9--9--------|
A|-------x----------------|----x----------------|----x-----------------|
E|-------x-----------0--0-|----x------------0---|----x------------0----|

   F#7
E|-0-----0-----0-----0-----|-0-----0-----0-----0-----|
B|-2-----2-----2-----2-----|-2-----2-----2-----2-----|
G|-3-----3-----3-----3-----|-3-----3-----3-----3-----|
D|-4-----4-----4-----4-----|-4-----4-----4-----4-----|
A|-------------------------|-------------------------|
E|-------------------------|-------------------------|



Verses - repeated throughout with different 4th bar endings
E|------------------------|------------------------|------------------------|
B|-2-------2--2--2--2-----|-2-------2--2--2--3--2--|-2-------2--2--2--3--2--|
G|-2-------2--2--2--2-----|-2-------2--2--2--2--2--|-2-------2--2--2--2--2--|
D|-2-------2--2--2--2-----|-2-------2--2--2--4--2--|-2-------2--2--2--4--2--|
A|-0----x--0--0--0--0--x--|-0----x--0--0--0--0--0--|-0--x-x--0--0--0--0--0--|
E|------x--------------x--|------x-----------------|----x-x-----------------|

Ending 1                      Ending 2                     Ending 3
E|-----------------------|    |-3----------2----------|    |---------3-------2----|
B|-2-------3--3--3--3----|    |-3----------3----------|    |-2-------3-------3----|
G|-2-------2--2--2--2----|    |-4----------2----------|    |-2-------4-------2----|
D|-2-------4--4--4--4----|    |-5----------0----------|    |-2-------5-------0----|
A|-0----x--------------x-|    |------x----------x-----|    |-0----x---------------|
E|------x--------------x-|    |------x----------x-----|    |------x---------------|

Ending 4
E|---------3-------2------|
B|-2-------3-------3------|
G|-2-------4-------2------|
D|-2-------5-------0------|
A|-0----x-----------------|
E|------x-----------------| after this, continue below

E|----------------------|-----------------------|-----------------------|
B|-2-------2--2----3----|-2-------2----2--3-----|-2-------2--2--2--3----|
G|-2-------2--2----2----|-2-------2----2--2-----|-2-------2--2--2--2----|
D|-2-------2--2----4----|-2-------2----2--4-----|-2-------2--2--2--4----|
A|-0----x--0--0----0----|-0----x--0----0--0-----|-0----x--0--0--0--0----|
E|------x---------------|------x----------------|------x----------------|
 
E|---------3--3----2----|------------------------|------------------------|
B|-2-------3--3----3----|-2-------2--2--2--2-----|-2-------3--3--3--3-----|
G|-2-------4--4----2----|-2-------2--2--2--2-----|-2-------2--2--2--2-----|
D|-2-------5--5----0----|-2-------2--2--2--2-----|-2-------4--4--4--4-----|
A|-0----x---------------|-0----x--0--0--0--0--x--|-0----x--0--0--0--0--x--|
E|------x---------------|------------------------|------------------------|

E|------------------------|------------------------|
B|-2-------2--2--2--2--2--|----3----3--3--3--3--3--|
G|-2-------2--2--2--2--2--|----2----2--2--2--2--2--|
D|-2-------2--2--2--2--2--|----4----4--4--4--4--4--|
A|-0----x--0--0--0--0--0--|-x--0----0--0--0--0--0--|
E|------x-----------------|-x----------------------|



Play Intro/Bridge, but add accent part on Guitar 2

e|----------12---| You can also add Chords Em7, Bm, Em7, F#7 
B|---------------| around the 12th fret to the correct rhythm.
G|---------------|
D|---------------|
A|---------------|
E|---------------|



Play Verse Again



Solo (with Intro/Bridge Riff as backing rhythm)
e|---15b17--12----12~-12~-|-12----12~-12~\-----|-----------------------------|
B|--x----------15---------|----15--------------|-----------------------------|
G|-x----------------------|--------------------|-----------12----------------|
D|------------------------|--------------------|-----12-14----14-14b16r14-12-|
A|------------------------|--------------------|-/14-------------------------|
E|------------------------|--------------------|-----------------------------|

e|---------------------|------------------------|-------------------------|
B|---------------------|------------------------|-------------------------|
G|---------------------|-11-------------11--11--|-11----------------------|
D|-14-12---------------|----12~--12-12----------|------------0---0---0----|
A|-------14~--14~\-----|------------------------|----14---14-14--14-------|
E|---------------------|------------------------|-------------------------|

e|-----------------------------------|----------------------------------|
B|-----10-12p10--12p10--10h12-10~----|-10~---10--10--b14r12-10--12--10--|
G|-/11-------------------------------|----------------------------------|
D|-----------------------------------|----------------------------------|
A|-----------------------------------|----------------------------------|
E|-----------------------------------|----------------------------------|

e|-------------------12----|----------------------|----------------------------|
B|-12--12--15----12--------|-(10)---12------10----|--------8--7~---------------|
G|----------------------14-|-----------12------9~-|-(9~)------------7--9-------|
D|-------------------------|----------------------|-----------------------9~---|
A|-------------------------|----------------------|----------------------------|
E|-------------------------|----------------------|----------------------------|

e|-7-----7-6-----6-|-5-----------------------|----2---------4-----|-----5-------6-------|
B|---8-------7-----|-----8qb--5----3--5p3----|--------------------|---------------------|
G|-----9-------8---|---7------------------4--|-3-------3/4------4-|-/5------5/6----6\---|
D|-----------------|-------------------------|--------------------|---------------------|
A|-----------------|-------------------------|--------------------|---------------------|
E|-----------------|-------------------------|--------------------|---------------------|




Play Verse Riff (or similar chords) until fade
            
Submit corrections


        Take Me In Your Arms lessons Hard to play? Try these video lessons and learn fast Take Me In Your Arms lessons
        
↑ Back to top | Tablatures and chords for acoustic guitar and electric guitar, ukulele, drums are parodies/interpretations of the original songs. You may use it for private study, scholarship, research or language learning purposes only