» » »

Doobie Brothers - Mamaloi Bass

Artists:  A B C D E F G H I J K L M N O P Q R S T U V W X Y Z # 

Mamaloi Bass

(ver. 1) Click to play this song!
Doobie Brothers
 Rating:
4.3/5 (19 votes)

 Mamaloi lessons Tabs too difficult? Try these video lessons and learn fast
 
                [Intro]
(00:06)
G|---------------------|--------------------| x2 
D|------7---------7---0|-5----7---------7---|
A|-5---------5---------|-----------5--------|
E|---------------------|--------------------|

[Verse 1/Pre-Chorus]
G|---------------------|--------------------| x3 
D|------7---------7---0|-5----7---------7---|
A|-5---------5---------|-----------5--------|
E|---------------------|--------------------|

G|---------------------|---------------------| 
D|------7---------7---0|-5----7------------4-|
A|-5---------5---------|-----------5----7----|
E|---------------------|---------------------|

[Chorus]
G|----------------------| x7
D|-5---7-----------4--7-|
A|---------5----7-------|
E|----------------------|

G|------------------| 
D|----------------7-|
A|-5----------------|
E|------------------|

[Verse 2/Pre-Chorus]
G|---------------------|--------------------| x3 
D|------7---------7---0|-5----7---------7---|
A|-5---------5---------|-----------5--------|
E|---------------------|--------------------|

G|---------------------|---------------------| 
D|------7---------7---0|-5----7------------4-|
A|-5---------5---------|-----------5----7----|
E|---------------------|---------------------|

[Chorus]
G|----------------------| x7
D|-5---7-----------4--7-|
A|---------5----7-------|
E|----------------------|

G|-----------------| 
D|-----------------|
A|-5---------------|
E|-----------------|

[Solo]
G|------------------| x4 
D|-5----------------|
A|-----5------------|
E|------------------|

G|----------------------------|--------------------------| x2 
D|-5-------7---4--------------|-5-------7---4------------|
A|-----5-----7---7-5---5-5----|-----5-----7---7-5---5--0-|
E|-------------------7-----7-5|-------------------7------|

[Outro]
G|--------------------| x6 
D|-5----7-------------|
A|-----------5----7---|
E|--------------------|

G|---------------------|--| 
D|-5----7------------7-|--| 
A|-----------5----7----|-5|
E|---------------------|--|
            
Submit corrections


        Mamaloi lessons Hard to play? Try these video lessons and learn fast Mamaloi lessons
        
↑ Back to top | Tablatures and chords for acoustic guitar and electric guitar, ukulele, drums are parodies/interpretations of the original songs. You may use it for private study, scholarship, research or language learning purposes only