» » »

Don Williams - I Believe In You (ez) Tabs

Artists:  A B C D E F G H I J K L M N O P Q R S T U V W X Y Z # 

I Believe In You (ez) Tabs

(ver. 1) Click to play this song!
Don Williams
 Rating:
4/5 (4 votes)

 I Believe In You (ez) lessons Tabs too difficult? Try these video lessons and learn fast
 
                DON WILLIAMS  --  I BELIEVE IN YOU

personaly this sounds better

Intro and ending


--------------------------------------------------------------------e
--------------------------------------------------------------------B
-------------0(2)-----0-----------------0(2)----4--4----------------G
--------0-----------------------------2---------5--5----------------D
-----2-------------------3------3-----------------------------------A
-3------------------------------------------------------------------E


----12-----12---12----------10-----10---10--------8------8----8-----e
--13-----13---13----------11-----11---11--------10-----10---10------B
--------------------------------------------------------------------G
--------------------------------------------------------------------D
--------------------------------------------------------------------A
--------------------------------------------------------------------E


-----6-----6---6---------------------5------------------------------e
----8-----8---8-------8/10---10-\-6--6------------------------------B
--------------------------------------------------------------------G
--------------------------------------------------------------------D
--------------------------------------------------------------------A
--------------------------------------------------------------------E


/ slide up
\   "   down
() Hammer on
            
Submit corrections


        I Believe In You (ez) lessons Hard to play? Try these video lessons and learn fast I Believe In You (ez) lessons
        
↑ Back to top | Tablatures and chords for acoustic guitar and electric guitar, ukulele, drums are parodies/interpretations of the original songs. You may use it for private study, scholarship, research or language learning purposes only