» » »

Donovan - Remember The Alamo Tabs

Artists:  A B C D E F G H I J K L M N O P Q R S T U V W X Y Z # 

Remember The Alamo Tabs

(ver. 1) Click to play this song!
Donovan
 Rating:
4/5 (4 votes)

 Remember The Alamo  lessons Tabs too difficult? Try these video lessons and learn fast
 
                Tuning: Standard (EAGDBe)

INTRO:
3/4
  C            G            C            F   C   F    C
e| --- --- ---| ---3---3-3-| ---0-0- ---| -1- -0- -1-| ---0-0- ---|
B|----1---1---|----3---3-3-|----1-1-----|--1---1---1-|----1-1-----|
G|----0---0---|----0---0-0-|0-------0---|--2---0---2-|0-----------|
D|----2---2---|0-----------|------------|3---2---3---|--------0h2-|
A|3-----------|------------|------------|------------|------------|
E|------------|------------|------------|------------|------------|

  G            C
e| ---3-3- ---| ---0---0-0-| ---0-0-0-0-| ---0---0-0-| ---0-0---0-|
B|----0-0-----|----1---1-1-|----1-1-1-1-|----1---1-1-|----1-1---1-|
G|----0-0-----|----0---0-0-|----0-0-0-0-|----0---0-0-|----0-0---0-|
D|0-----------|------------|0-----------|------------|0h2---------|
A|--------2---|3-----------|------------|3-----------|------------|
E|------------|------------|------------|------------|------------|


VERSE:
3/4
  C            G            C            F   C   F    C
e| ---0---0-0-| ---3---3-3-| ---0---0-0-|1---0---1---| ---0---0-0-|
B|----1---1-1-|----3---3-3-|----1---1-1-|1---1---1---|----1---1-1-|
G|----0---0-0-|----0---0-0-|0---0---0-0-|2---0---2---|0-----------|
D|------------|0-----------|------------|3---2---3---|------------|
A|3-----------|------------|------------|------------|------------|
E|------------|------------|------------|------------|------------|
  A hunderd and eighty...

e| ---0-0-0-0-| ---0---0-0-| ---0---0-0-|
B|----1-1-1-1-|----1---1-1-|----1---1-1-|
G|----0-0-0-0-|----0---0-0-|----0---0-0-|
D|0-----------|------------|0h2---------|
A|------------|3-----------|------------|
E|------------|------------|------------|

  C            G            C            F   C   F    C
e| ---0---0-0-| ---3---3-3-| ---0---0-0-|1---0---1---| ---0---0-0-|
B|----1---1-1-|----3---3-3-|----1---1-1-|1---1---1---|----1---1-1-|
G|----0---0-0-|----0---0-0-|0---0---0-0-|2---0---2---|0-----------|
D|------------|0-----------|------------|3---2---3---|------------|
A|3-----------|------------|------------|------------|------------|
E|------------|------------|------------|------------|------------|
  By a line that he drew...

               C7
e| ---0---0-0-| ---0---0-0-| --- --- ---|
B|----1---1-1-|----1---1-1-|------------|
G|0-----------|----3---3-3-|------------|
D|------------|------------|----0---2---|
A|------------|3-----------|3-----------|
E|------------|------------|------------|
                                    A...

  F                         C                         F
e| ---1---1-1-| ---1---1-1-| ---0---0-0-| ---0---0-0-| ---1---1-1-|
B|----1---1-1-|----1---1-1-|----1---1-1-|----1---1-1-|----1---1-1-|
G|----2---2-2-|----2---2-2-|----0---0-0-|----0---0-0-|----2---2-2-|
D|3-----------|3-----------|2-----------|2-----------|------------|
A|------------|------------|------------|------------|------------|
E|------------|------------|------------|------------|1-----------|
  man that crossed...

               C
e| ---1---1-1-| ---0---0-0-| ---0---0-0-|
B|----2---2-2-|----1---1-1-|----1---1-1-|
G|----2---2-2-|----0---0-0-|----0---0-0-|
D|------------|------------|------------|
A|------------|3-----------|3-----------|
E|1-----------|------------|------------|

               G            C            F   C   F    C
e| ---0---0-0-| ---3---3-3-| ---0---0-0-|1---0---1---| ---0---0-0-|
B|----1---1-1-|----3---3-3-|----1---1-1-|1---1---1---|----1---1-1-|
G|----0---0-0-|----0---0-0-|0---0---0-0-|2---0---2---|0-----------|
D|------------|0-----------|------------|3---2---3---|------------|
A|3-----------|------------|------------|------------|------------|
E|------------|------------|------------|------------|------------|
  And over the line crossed...

               C7
e| ---0---0-0-| ---0---0-0-| ---0---0-0-|
B|----1---1-1-|----1---1-1-|----1---1-1-|
G|0-----------|----3---3-3-|----3---3-3-|
D|------------|------------|------------|
A|------------|3-----------|3-----------|
E|------------|------------|------------|


CHORUS:
3/4
  F
e| ---1---1-1-| ---1---1-1-| ---1---1-1-| ---1---1-1-| ---1---1-1-|
B|----1---1-1-|----1---1-1-|----1---1-1-|----1---1-1-|----1---1-1-|
G|----2---2-2-|----2---2-2-|----2---2-2-|----2---2-2-|----2---2-2-|
D|------------|------------|------------|------------|------------|
A|------------|------------|------------|------------|------------|
E|1-----------|1-----------|1-----------|1-----------|1-----------|
  Hey, up Santa Anna...

               Em
e| ---1---1-1-| ---0-0- ---| ---0---0-0-| ---0--- ---| ---0-0- ---|
B|----1---1-1-|----0-0-----|----0---0-0-|----0-------|----0-0-----|
G|----2---2-2-|----0-0-----|----0---0-0-|----0-------|----0-0-----|
D|------------|------------|------------|------------|------------|
A|------------|--------2---|0h2---------|2-------2---|2-------2---|
E|1-----------|0-----------|------------|------------|------------|
                                                          So the...

  F                         C                         G7
e| ---1---1-1-| ---1---1-1-| ---0---0-0-| ---0-0- ---| ---1---1-1-|
B|----1---1-1-|----1---1-1-|----1---1-1-|----1-1-----|----0---0-0-|
G|----2---2-2-|----2---2-2-|----0---0-0-|----0-0-----|----0---0-0-|
D|------------|------------|------------|0h2---------|0-----------|
A|------------|------------|3-----------|--------3---|------------|
E|1-----------|1-----------|------------|------------|------------|
  rest of Texas will know...                              And re...

               C            G            C            F
e|1---1-1-1---| ---0---0-0-| ---3---3---| ---0-0- ---| ---1---1-1-|
B|0---0-0-0---|----1---1-1-|----0---0---|----1-1-----|----1---1-1-|
G|0---0-0-0---|----0---0-0-|----0---0---|----0-0-0---|2-----------|
D|------------|------------|0-----------|0h2---------|------------|
A|------------|3-----------|------------|------------|------------|
E|------------|------------|------------|------------|------------|
  member the Alamo

  C            G            C
e| ---0-0- ---| ---3-3- ---| ---0---0-0-| ---0---0-0-| ---0---0-0-|
B|----1-1-----|----0-0-----|----1---1-1-|----1---1-1-|----1---1-1-|
G|----0-0-----|----0-0-----|----0---0-0-|----0---0-0-|----0---0-0-|
D|0h2-----0h2-|0-----------|------------|0-----------|------------|
A|------------|--------2---|3-----------|------------|3-----------|
E|------------|------------|------------|------------|------------|

e| ---0---0-0-|
B|----1---1-1-|
G|----0---0-0-|
D|0-----------|
A|------------|
E|------------|            
Submit corrections


        Remember The Alamo  lessons Hard to play? Try these video lessons and learn fast Remember The Alamo  lessons
        
↑ Back to top | Tablatures and chords for acoustic guitar and electric guitar, ukulele, drums are parodies/interpretations of the original songs. You may use it for private study, scholarship, research or language learning purposes only