Home » D » Donald Fagen »

Donald Fagen - The New Breed Tabs

Artists:  A B C D E F G H I J K L M N O P Q R S T U V W X Y Z # 

The New Breed Tabs

(ver. 1) Click to play this song!
Donald Fagen
Tuning:

e|--0------0-------0------- 3---------------0------0-------0---------------------|
B|--3------0-------3----------0-------------3------0-------3--------0-------------|
G|--4------5-------4---------   5-----------4------5-------4-------5-5----------------|
D|--4------5-------4--------     -5------- -4------5-------4------5------------------|
A|--0--------------0------0-----------------0--------------0-----0---------------|
E|3--------0 ------3------------------------3------0-------3--------------------|

e|---0-----0-----------0-------0---------------0--------0--------0----------------|
B|---3-----0-----------3-------0---------------3--------0--------3-------3---------|
G|---4-----5-----------4-------2---------------4--------5--------4-------2-----------|
D|---4-----5-----------4-------4---------------4--------5--------4-------0-----------|
A|---0-----0-----------0------- ---------------0--------0--------0-------0-------|
E|---3----- -----------3-------3---------------3-------  --------3-------3---------|
   tonight     i ran into the kid who's been upgrading all your stuff
   you're right he really now his stuff a real diamond in the rough
0

e|--2---------------0-----------0---0------2-------0-------0-----0-------------------|
B|--3---------------3-----------1---1------0-------0-------0-----0-------------------|
G|--3---------------0-----------0---0------2-------1-------2-----1-------------------|
D|--2---------------0-----------0---2------2-------0-------0-----0-------------------|
A|--2---------------1-----------3---0------0-------2-------0-----2-------------------|
E|--2---------------0-----------0---0------2-------0-------2-----0-------------------
     a funny little hum   click on       inside my head



e|---2-------2-----------------------------------------------------------------|
B|---3-------3-----------------------------------------------------------------|
G|---0-------2-----------------------------------------------------------------|
D|---0-------0--------repeats these 2 chords-----------------------------------|
A|---3-------0-----------------------------------------------------------------|
E|---0-------3-----------------------------------------------------------------|
     so tell me   he doesn't seem your type is there something I should know

0

e|---------0---------------2--------------------0---------0----------------------|
B|---------1---------------0--------------------0---------0----------------------|
G|---------3---------------2--------------------2---------1----------------------|
D|---------0---------------0--------------------0---------0----------------------|
A|---------3---------------2--------------------2---------2----------------------|
E|---------0---------------0--------------------0---------0----------------------|
     don't lie    are you trying to hide that special glow
     

    You're the new breed alright  I guess you're what she wants now
e|--0-------------0--------0----------0--------------------------0----------------|
B|--0-------------2--------2----------0--------------------------2----------------|
G|--0-------------4--------3----------0--------------------------3----------------|
D|--2-------------4--------4----------2--------------------------4----------------|
A|--4-------------4--------4----------4--------------------------4----------------|
E|--0-------------0--------0----------0--------------------------0----------------|


    you're young and strong and you own the night
e|---1----------------1--------------1--------0----------------------------------|
B|---1----------------0--------------1--------0----------------------------------|
G|---2----------------2--------------1--------1----------------------------------|
D|---0----------------0--------------0--------0----------------------------------|
A|---0----------------0--------------2--------2----------------------------------|
E|---0----------------0--------------0--------0----------------------------------|


      good luck to you both I'll get along some how
e|----3----------------5----------6--------5------------------------------------|
B|----3----------------5----------6--------6-------------------------------------|
G|----5----------------7----------8--------6-------------------------------------|
D|----5----------------7----------8--------7-------------------------------------|
A|----3----------------5----------6--------0-------------------------------------|
E|----5----------------7----------8--------0-------------------------------------|            
Submit corrections

↑ Back to top | Tablatures and chords for acoustic guitar and electric guitar, ukulele, drums are parodies/interpretations of the original songs. You may use it for private study, scholarship, research or language learning purposes only