Home » D » Donald Fagen »

Donald Fagen - Maxine Chords

Artists:  A B C D E F G H I J K L M N O P Q R S T U V W X Y Z # 

Maxine Chords

(ver. 1) Click to play this song!
Donald Fagen
Intro: Fm9 Fm7|Bbm9 Bbm7|Eb7 G#maj9|Am7b5 D7#9|Gmaj9 |F#m7b5 F13b5

C#m7b5                  C7b5
   Some say that we're reckless
     Am7                G#m7b5
They say we're much too young
Am7            D13b5   Bm7b5 Bm7b5/F   Bm11 - Bb13b5 - Am11 
    Tell us to stop? before  we've be- gun
             F#7#5#9       Bm11   Bbm11  Am11
We've got to hold out till gradu- a-     tion
Am7             Em7 Ebmaj9  Am11   A+/Eb  D7/4  B7#9  
    Try to hang on?      Maxine???????????????


C#m7b5                C7b5
   While the world is sleeping
   Am7             G#m7b5
We meet at Lincoln Mall
Am7           D13b5    Bm7b5  Bm7b5/F    Bm11 - Bb13b5 - Am11 
   Talk about life the mea-   ning of it all
            F#7#5#9      Bm11   Bbm11 Am11
Try to make sense of the subur- ban   sprawl
Am7            Em7   Ebmaj9     Em7/A  A7#5  Em7/A  Ab/F 
   Try to hang on........    Maxine???????????????ohh

Eb/F      Ebmaj9 - Dm7b5             G7#5  G7#5/B  
   Mexico City?      is like another world
Cm11          F9       D/Bb   Gmmaj9/E
   Nice this year they say
Ebmaj7              Cm7/G  F7/4  
   You'll be my senorita
Dm7b5           A7#9b5
   In jeans and pearls
    Dm7             G7#5     Cm7               Am11    G6/B
But first let's get off this highway, off this highway

C#m7b5                  C7b5
    We'll move up to Manhattan
    Am7                 G#m7b5
And fill the place with friends
Am7              D13b5     Bm7b5 Bm7b5/F     Bm11 - Bb13b5 - Am11 
    Drive to the coast and drive right back again
              F#7#5#9       Bm11      Bbm11 Am11
One day we'll wake up, make love but 'til   then
C/D             Em7 Eb/F     Fmaj7   Bbmaj7   Ebmaj7  Gmaj7
    Try to hang on??      Maxine............................

  G#maj9 Am7b5 D7#9 Gmaj9 F#m7b5 F13b5 C#m7b5 C7b5 D13b5 Bm7b5 Bm7b5/F Bm11 Bb13b5 Am11 F#7#5#9 Ebmaj9  
e---3------x----x-----2-----x------x------x----x-----4-----1-----1------x------x-----x----5-----x----
b---4------4----6-----0-----1------3------8----7-----5-----3-----3------5------3-----3----3-----6----
G---3------5----5-----2-----2------0------9----9-----5-----2-----2------7------3-----5----3-----7----
D---x------5----4-----0-----2------1------9----8-----4-----x-----x------7------4-----5----2-----5----
A---x------0----5-----x-----x------x------x----x-----5-----2-----2------x------x-----x----x-----6----
E---4------x----x-----3-----2------1------9----8-----x-----x-----1------7------4-----5----2-----x-----
 
  A+/Eb D7/4 B7#9 Em7/A A7#5 Ab/F Eb/F Ebmaj7 Dm7b5 G7#5 G7#5/B Cm11  F9 D/Bb Gmmaj9/E F7/4 A7#9b5
e---x-----x---x-----x----x---x----x------x------x-----x----x------x---8---x------5------x-----8?6-----
b---6-----3---3-----3----6---9----8------8------6-----4----4------6---8---7------3------6-----6-------
G---6-----5---2-----4----6---8----8------7------5-----4----4------8---8---7------3------8-----6-------
D---7-----5---1-----5----5---10---8------8------6-----3----3------8---7---7------4------8-----5-------
A---6-----5---2-----0----0---8----8------6------5-----x----2------x---8---x------x------8-----0-------
E---x-----x---x-----x----x---x----x------x------x-----3----x------8---x---6------0------x-----x-------
            
Submit corrections

↑ Back to top | Tablatures and chords for acoustic guitar and electric guitar, ukulele, drums are parodies/interpretations of the original songs. You may use it for private study, scholarship, research or language learning purposes only